  0
SECTION
  2
HEADER
  9
$EXTMIN
 10
48802.000000
 20
8051276.000000
  9
$EXTMAX
 10
50269.000000
 20
8069952.000000
  0
ENDSEC
  0
SECTION
  2
ENTITIES
  0
POLYLINE
8
0ERM
  62
0
  66
1
  0
VERTEX
8
0ERM
 10
50008.000000
 20
8067531.000000
 30
0.000000
 62
0
  0
VERTEX
8
0ERM
 10
50106.000000
 20
8067535.000000
 30
0.000000
 62
0
  0
VERTEX
8
0ERM
 10
50014.000000
 20
8067505.000000
 30
0.000000
 62
0
  0
VERTEX
8
0ERM
 10
49961.000000
 20
8067503.000000
 30
0.000000
 62
0
  0
VERTEX
8
0ERM
 10
49873.000000
 20
8067497.000000
 30
0.000000
 62
0
  0
VERTEX
8
0ERM
 10
49851.000000
 20
8067452.000000
 30
0.000000
 62
0
  0
VERTEX
8
0ERM
 10
49947.000000
 20
8067449.000000
 30
0.000000
 62
0
  0
VERTEX
8
0ERM
 10
49800.000000
 20
8067410.000000
 30
0.000000
 62
0
  0
SEQEND
8
0ERM
  0
POLYLINE
8
0ERM
  62
0
  66
1
  0
VERTEX
8
0ERM
 10
49800.000000
 20
8067404.000000
 30
0.000000
 62
0
  0
VERTEX
8
0ERM
 10
49746.000000
 20
8067496.000000
 30
0.000000
 62
0
  0
SEQEND
8
0ERM
  0
POLYLINE
8
0ERM
  62
0
  66
1
  0
VERTEX
8
0ERM
 10
50103.000000
 20
8067532.000000
 30
0.000000
 62
0
  0
VERTEX
8
0ERM
 10
50269.000000
 20
8067532.000000
 30
0.000000
 62
0
  0
VERTEX
8
0ERM
 10
50114.000000
 20
8067533.000000
 30
0.000000
 62
0
  0
VERTEX
8
0ERM
 10
50232.000000
 20
8067549.000000
 30
0.000000
 62
0
  0
VERTEX
8
0ERM
 10
50125.000000
 20
8067548.000000
 30
0.000000
 62
0
  0
VERTEX
8
0ERM
 10
50046.000000
 20
8067569.000000
 30
0.000000
 62
0
  0
VERTEX
8
0ERM
 10
49892.000000
 20
8067573.000000
 30
0.000000
 62
0
  0
VERTEX
8
0ERM
 10
49981.000000
 20
8067571.000000
 30
0.000000
 62
0
  0
VERTEX
8
0ERM
 10
49963.000000
 20
8067744.000000
 30
0.000000
 62
0
  0
VERTEX
8
0ERM
 10
50095.000000
 20
8067741.000000
 30
0.000000
 62
0
  0
VERTEX
8
0ERM
 10
49993.000000
 20
8067734.000000
 30
0.000000
 62
0
  0
VERTEX
8
0ERM
 10
49808.000000
 20
8067574.000000
 30
0.000000
 62
0
  0
VERTEX
8
0ERM
 10
49932.000000
 20
8067559.000000
 30
0.000000
 62
0
  0
VERTEX
8
0ERM
 10
49900.000000
 20
8067530.000000
 30
0.000000
 62
0
  0
SEQEND
8
0ERM
  0
POLYLINE
8
0ERM
  62
0
  66
1
  0
VERTEX
8
0ERM
 10
49964.000000
 20
8069952.000000
 30
0.000000
 62
0
  0
VERTEX
8
0ERM
 10
50076.000000
 20
8069397.000000
 30
0.000000
 62
0
  0
VERTEX
8
0ERM
 10
50083.000000
 20
8069265.000000
 30
0.000000
 62
0
  0
VERTEX
8
0ERM
 10
49994.000000
 20
8069897.000000
 30
0.000000
 62
0
  0
SEQEND
8
0ERM
  0
POLYLINE
8
0ERM
  62
0
  66
1
  0
VERTEX
8
0ERM
 10
50027.000000
 20
8067575.000000
 30
0.000000
 62
0
  0
VERTEX
8
0ERM
 10
50051.000000
 20
8067565.000000
 30
0.000000
 62
0
  0
VERTEX
8
0ERM
 10
49948.000000
 20
8067368.000000
 30
0.000000
 62
0
  0
SEQEND
8
0ERM
  0
POLYLINE
8
0ERM
  62
0
  66
1
  0
VERTEX
8
0ERM
 10
50103.000000
 20
8067669.000000
 30
0.000000
 62
0
  0
VERTEX
8
0ERM
 10
50090.000000
 20
8067667.000000
 30
0.000000
 62
0
  0
VERTEX
8
0ERM
 10
50202.000000
 20
8067635.000000
 30
0.000000
 62
0
  0
VERTEX
8
0ERM
 10
50093.000000
 20
8067611.000000
 30
0.000000
 62
0
  0
VERTEX
8
0ERM
 10
50093.000000
 20
8067501.000000
 30
0.000000
 62
0
  0
VERTEX
8
0ERM
 10
49926.000000
 20
8067481.000000
 30
0.000000
 62
0
  0
VERTEX
8
0ERM
 10
50099.000000
 20
8067443.000000
 30
0.000000
 62
0
  0
VERTEX
8
0ERM
 10
50122.000000
 20
8067410.000000
 30
0.000000
 62
0
  0
VERTEX
8
0ERM
 10
50094.000000
 20
8067334.000000
 30
0.000000
 62
0
  0
VERTEX
8
0ERM
 10
49992.000000
 20
8067105.000000
 30
0.000000
 62
0
  0
VERTEX
8
0ERM
 10
49953.000000
 20
8067003.000000
 30
0.000000
 62
0
  0
VERTEX
8
0ERM
 10
49953.000000
 20
8067003.000000
 30
0.000000
 62
0
  0
VERTEX
8
0ERM
 10
50100.000000
 20
8066961.000000
 30
0.000000
 62
0
  0
VERTEX
8
0ERM
 10
49936.000000
 20
8066921.000000
 30
0.000000
 62
0
  0
VERTEX
8
0ERM
 10
49890.000000
 20
8066806.000000
 30
0.000000
 62
0
  0
VERTEX
8
0ERM
 10
49984.000000
 20
8066765.000000
 30
0.000000
 62
0
  0
VERTEX
8
0ERM
 10
49893.000000
 20
8066730.000000
 30
0.000000
 62
0
  0
VERTEX
8
0ERM
 10
49809.000000
 20
8066530.000000
 30
0.000000
 62
0
  0
VERTEX
8
0ERM
 10
49913.000000
 20
8066492.000000
 30
0.000000
 62
0
  0
SEQEND
8
0ERM
  0
POLYLINE
8
0ERM
  62
0
  66
1
  0
VERTEX
8
0ERM
 10
49913.000000
 20
8066492.000000
 30
0.000000
 62
0
  0
VERTEX
8
0ERM
 10
49796.000000
 20
8066452.000000
 30
0.000000
 62
0
  0
VERTEX
8
0ERM
 10
49809.000000
 20
8066414.000000
 30
0.000000
 62
0
  0
VERTEX
8
0ERM
 10
49549.000000
 20
8066363.000000
 30
0.000000
 62
0
  0
VERTEX
8
0ERM
 10
49785.000000
 20
8066325.000000
 30
0.000000
 62
0
  0
VERTEX
8
0ERM
 10
49764.000000
 20
8066280.000000
 30
0.000000
 62
0
  0
SEQEND
8
0ERM
  0
POLYLINE
8
0ERM
  62
0
  66
1
  0
VERTEX
8
0ERM
 10
49727.000000
 20
8066200.000000
 30
0.000000
 62
0
  0
VERTEX
8
0ERM
 10
49670.000000
 20
8065563.000000
 30
0.000000
 62
0
  0
VERTEX
8
0ERM
 10
49764.000000
 20
8065531.000000
 30
0.000000
 62
0
  0
VERTEX
8
0ERM
 10
49655.000000
 20
8065500.000000
 30
0.000000
 62
0
  0
VERTEX
8
0ERM
 10
49584.000000
 20
8065494.000000
 30
0.000000
 62
0
  0
VERTEX
8
0ERM
 10
49674.000000
 20
8065495.000000
 30
0.000000
 62
0
  0
VERTEX
8
0ERM
 10
49659.000000
 20
8065494.000000
 30
0.000000
 62
0
  0
VERTEX
8
0ERM
 10
49788.000000
 20
8065493.000000
 30
0.000000
 62
0
  0
VERTEX
8
0ERM
 10
49760.000000
 20
8065495.000000
 30
0.000000
 62
0
  0
VERTEX
8
0ERM
 10
49523.000000
 20
8065499.000000
 30
0.000000
 62
0
  0
VERTEX
8
0ERM
 10
49676.000000
 20
8065498.000000
 30
0.000000
 62
0
  0
VERTEX
8
0ERM
 10
49633.000000
 20
8065523.000000
 30
0.000000
 62
0
  0
VERTEX
8
0ERM
 10
49416.000000
 20
8065556.000000
 30
0.000000
 62
0
  0
VERTEX
8
0ERM
 10
49631.000000
 20
8065591.000000
 30
0.000000
 62
0
  0
VERTEX
8
0ERM
 10
49636.000000
 20
8065635.000000
 30
0.000000
 62
0
  0
VERTEX
8
0ERM
 10
49709.000000
 20
8065673.000000
 30
0.000000
 62
0
  0
VERTEX
8
0ERM
 10
49761.000000
 20
8065714.000000
 30
0.000000
 62
0
  0
VERTEX
8
0ERM
 10
49664.000000
 20
8065755.000000
 30
0.000000
 62
0
  0
VERTEX
8
0ERM
 10
49692.000000
 20
8065796.000000
 30
0.000000
 62
0
  0
VERTEX
8
0ERM
 10
49844.000000
 20
8065840.000000
 30
0.000000
 62
0
  0
VERTEX
8
0ERM
 10
49625.000000
 20
8065884.000000
 30
0.000000
 62
0
  0
VERTEX
8
0ERM
 10
49759.000000
 20
8065923.000000
 30
0.000000
 62
0
  0
VERTEX
8
0ERM
 10
49787.000000
 20
8065966.000000
 30
0.000000
 62
0
  0
VERTEX
8
0ERM
 10
49706.000000
 20
8066011.000000
 30
0.000000
 62
0
  0
VERTEX
8
0ERM
 10
49718.000000
 20
8066176.000000
 30
0.000000
 62
0
  0
VERTEX
8
0ERM
 10
49848.000000
 20
8066222.000000
 30
0.000000
 62
0
  0
VERTEX
8
0ERM
 10
49734.000000
 20
8066263.000000
 30
0.000000
 62
0
  0
VERTEX
8
0ERM
 10
49797.000000
 20
8066386.000000
 30
0.000000
 62
0
  0
VERTEX
8
0ERM
 10
49966.000000
 20
8066426.000000
 30
0.000000
 62
0
  0
VERTEX
8
0ERM
 10
49933.000000
 20
8066467.000000
 30
0.000000
 62
0
  0
VERTEX
8
0ERM
 10
49793.000000
 20
8066505.000000
 30
0.000000
 62
0
  0
VERTEX
8
0ERM
 10
49876.000000
 20
8066533.000000
 30
0.000000
 62
0
  0
VERTEX
8
0ERM
 10
49861.000000
 20
8066857.000000
 30
0.000000
 62
0
  0
SEQEND
8
0ERM
  0
POLYLINE
8
0ERM
  62
0
  66
1
  0
VERTEX
8
0ERM
 10
49895.000000
 20
8066936.000000
 30
0.000000
 62
0
  0
VERTEX
8
0ERM
 10
49935.000000
 20
8066962.000000
 30
0.000000
 62
0
  0
VERTEX
8
0ERM
 10
50079.000000
 20
8067005.000000
 30
0.000000
 62
0
  0
VERTEX
8
0ERM
 10
49800.000000
 20
8067048.000000
 30
0.000000
 62
0
  0
VERTEX
8
0ERM
 10
49956.000000
 20
8067089.000000
 30
0.000000
 62
0
  0
VERTEX
8
0ERM
 10
49955.000000
 20
8067245.000000
 30
0.000000
 62
0
  0
VERTEX
8
0ERM
 10
50128.000000
 20
8067285.000000
 30
0.000000
 62
0
  0
VERTEX
8
0ERM
 10
49989.000000
 20
8067326.000000
 30
0.000000
 62
0
  0
VERTEX
8
0ERM
 10
49980.000000
 20
8067373.000000
 30
0.000000
 62
0
  0
VERTEX
8
0ERM
 10
50057.000000
 20
8067412.000000
 30
0.000000
 62
0
  0
VERTEX
8
0ERM
 10
50026.000000
 20
8067473.000000
 30
0.000000
 62
0
  0
SEQEND
8
0ERM
  0
POLYLINE
8
0ERM
  62
0
  66
1
  0
VERTEX
8
0ERM
 10
49677.000000
 20
8065493.000000
 30
0.000000
 62
0
  0
VERTEX
8
0ERM
 10
49701.000000
 20
8065418.000000
 30
0.000000
 62
0
  0
VERTEX
8
0ERM
 10
49781.000000
 20
8065378.000000
 30
0.000000
 62
0
  0
VERTEX
8
0ERM
 10
49695.000000
 20
8065328.000000
 30
0.000000
 62
0
  0
VERTEX
8
0ERM
 10
49736.000000
 20
8065253.000000
 30
0.000000
 62
0
  0
VERTEX
8
0ERM
 10
49533.000000
 20
8065213.000000
 30
0.000000
 62
0
  0
VERTEX
8
0ERM
 10
49639.000000
 20
8065168.000000
 30
0.000000
 62
0
  0
VERTEX
8
0ERM
 10
49592.000000
 20
8065080.000000
 30
0.000000
 62
0
  0
VERTEX
8
0ERM
 10
49685.000000
 20
8065041.000000
 30
0.000000
 62
0
  0
VERTEX
8
0ERM
 10
49590.000000
 20
8064990.000000
 30
0.000000
 62
0
  0
SEQEND
8
0ERM
  0
POLYLINE
8
0ERM
  62
0
  66
1
  0
VERTEX
8
0ERM
 10
49596.000000
 20
8064902.000000
 30
0.000000
 62
0
  0
VERTEX
8
0ERM
 10
49539.000000
 20
8064809.000000
 30
0.000000
 62
0
  0
VERTEX
8
0ERM
 10
49588.000000
 20
8063766.000000
 30
0.000000
 62
0
  0
VERTEX
8
0ERM
 10
49730.000000
 20
8063771.000000
 30
0.000000
 62
0
  0
VERTEX
8
0ERM
 10
49625.000000
 20
8063669.000000
 30
0.000000
 62
0
  0
VERTEX
8
0ERM
 10
49612.000000
 20
8063621.000000
 30
0.000000
 62
0
  0
SEQEND
8
0ERM
  0
POLYLINE
8
0ERM
  62
0
  66
1
  0
VERTEX
8
0ERM
 10
49597.000000
 20
8063548.000000
 30
0.000000
 62
0
  0
VERTEX
8
0ERM
 10
49560.000000
 20
8063514.000000
 30
0.000000
 62
0
  0
VERTEX
8
0ERM
 10
49797.000000
 20
8063481.000000
 30
0.000000
 62
0
  0
VERTEX
8
0ERM
 10
49634.000000
 20
8063438.000000
 30
0.000000
 62
0
  0
VERTEX
8
0ERM
 10
49632.000000
 20
8063352.000000
 30
0.000000
 62
0
  0
SEQEND
8
0ERM
  0
POLYLINE
8
0ERM
  62
0
  66
1
  0
VERTEX
8
0ERM
 10
49950.000000
 20
8063407.000000
 30
0.000000
 62
0
  0
VERTEX
8
0ERM
 10
49738.000000
 20
8063456.000000
 30
0.000000
 62
0
  0
VERTEX
8
0ERM
 10
49617.000000
 20
8063505.000000
 30
0.000000
 62
0
  0
VERTEX
8
0ERM
 10
49511.000000
 20
8064810.000000
 30
0.000000
 62
0
  0
VERTEX
8
0ERM
 10
49620.000000
 20
8064854.000000
 30
0.000000
 62
0
  0
VERTEX
8
0ERM
 10
49485.000000
 20
8065006.000000
 30
0.000000
 62
0
  0
VERTEX
8
0ERM
 10
49612.000000
 20
8065064.000000
 30
0.000000
 62
0
  0
VERTEX
8
0ERM
 10
49649.000000
 20
8065202.000000
 30
0.000000
 62
0
  0
VERTEX
8
0ERM
 10
49577.000000
 20
8065249.000000
 30
0.000000
 62
0
  0
VERTEX
8
0ERM
 10
49571.000000
 20
8065296.000000
 30
0.000000
 62
0
  0
VERTEX
8
0ERM
 10
49673.000000
 20
8065350.000000
 30
0.000000
 62
0
  0
VERTEX
8
0ERM
 10
49636.000000
 20
8065399.000000
 30
0.000000
 62
0
  0
VERTEX
8
0ERM
 10
49570.000000
 20
8065445.000000
 30
0.000000
 62
0
  0
VERTEX
8
0ERM
 10
49629.000000
 20
8065500.000000
 30
0.000000
 62
0
  0
SEQEND
8
0ERM
  0
TEXT
8
0ERM
 62
19
 10
48802.000000
 20
8059740.000000
 30
0.000000
 40
4233.330078
 50
0
  1
CR20040012_limmag-lines
 62
0
  0
TEXT
8
0ERM
 62
19
 10
48802.000000
 20
8055506.669922
 30
0.000000
 40
4233.330078
 50
0
  1
25.8 km  090
 62
0
  0
ENDSEC
  0
EOF
