  0
SECTION
  2
HEADER
  9
$EXTMIN
 10
520150.000000
 20
7760150.000000
  9
$EXTMAX
 10
525416.940000
 20
7780439.000000
  0
ENDSEC
  0
SECTION
  2
ENTITIES
  0
POLYLINE
8
0ERM
  62
0
  66
1
  0
VERTEX
8
0ERM
 10
524500.000000
 20
7777400.000000
 30
0.000000
 62
0
  0
VERTEX
8
0ERM
 10
524500.000000
 20
7779200.000000
 30
0.000000
 62
0
  0
VERTEX
8
0ERM
 10
524650.000000
 20
7779200.000000
 30
0.000000
 62
0
  0
VERTEX
8
0ERM
 10
524800.000000
 20
7779200.000000
 30
0.000000
 62
0
  0
VERTEX
8
0ERM
 10
524100.000000
 20
7779200.000000
 30
0.000000
 62
0
  0
SEQEND
8
0ERM
  0
POLYLINE
8
0ERM
  62
0
  66
1
  0
VERTEX
8
0ERM
 10
525000.000000
 20
7778800.000000
 30
0.000000
 62
0
  0
VERTEX
8
0ERM
 10
524000.000000
 20
7778800.000000
 30
0.000000
 62
0
  0
SEQEND
8
0ERM
  0
POLYLINE
8
0ERM
  62
0
  66
1
  0
VERTEX
8
0ERM
 10
525000.000000
 20
7778400.000000
 30
0.000000
 62
0
  0
VERTEX
8
0ERM
 10
524000.000000
 20
7778400.000000
 30
0.000000
 62
0
  0
VERTEX
8
0ERM
 10
524183.340000
 20
7778333.500000
 30
0.000000
 62
0
  0
VERTEX
8
0ERM
 10
524366.690000
 20
7778266.500000
 30
0.000000
 62
0
  0
VERTEX
8
0ERM
 10
524550.000000
 20
7778200.000000
 30
0.000000
 62
0
  0
VERTEX
8
0ERM
 10
524733.310000
 20
7778133.500000
 30
0.000000
 62
0
  0
VERTEX
8
0ERM
 10
524916.690000
 20
7778066.500000
 30
0.000000
 62
0
  0
VERTEX
8
0ERM
 10
525100.000000
 20
7778000.000000
 30
0.000000
 62
0
  0
VERTEX
8
0ERM
 10
524000.000000
 20
7778000.000000
 30
0.000000
 62
0
  0
SEQEND
8
0ERM
  0
POLYLINE
8
0ERM
  62
0
  66
1
  0
VERTEX
8
0ERM
 10
525100.000000
 20
7777600.000000
 30
0.000000
 62
0
  0
VERTEX
8
0ERM
 10
524000.000000
 20
7777600.000000
 30
0.000000
 62
0
  0
SEQEND
8
0ERM
  0
POLYLINE
8
0ERM
  62
0
  66
1
  0
VERTEX
8
0ERM
 10
522250.000000
 20
7776500.000000
 30
0.000000
 62
0
  0
VERTEX
8
0ERM
 10
521555.380000
 20
7780439.000000
 30
0.000000
 62
0
  0
SEQEND
8
0ERM
  0
POLYLINE
8
0ERM
  62
0
  66
1
  0
VERTEX
8
0ERM
 10
523950.000000
 20
7777250.000000
 30
0.000000
 62
0
  0
VERTEX
8
0ERM
 10
522450.000000
 20
7779848.000000
 30
0.000000
 62
0
  0
SEQEND
8
0ERM
  0
POLYLINE
8
0ERM
  62
0
  66
1
  0
VERTEX
8
0ERM
 10
524200.000000
 20
7778250.000000
 30
0.000000
 62
0
  0
VERTEX
8
0ERM
 10
525200.000000
 20
7778250.000000
 30
0.000000
 62
0
  0
SEQEND
8
0ERM
  0
POLYLINE
8
0ERM
  62
0
  66
1
  0
VERTEX
8
0ERM
 10
523050.000000
 20
7776700.000000
 30
0.000000
 62
0
  0
VERTEX
8
0ERM
 10
524011.250000
 20
7776975.500000
 30
0.000000
 62
0
  0
SEQEND
8
0ERM
  0
POLYLINE
8
0ERM
  62
0
  66
1
  0
VERTEX
8
0ERM
 10
520150.000000
 20
7776100.000000
 30
0.000000
 62
0
  0
VERTEX
8
0ERM
 10
520966.970000
 20
7777358.000000
 30
0.000000
 62
0
  0
SEQEND
8
0ERM
  0
POLYLINE
8
0ERM
  62
0
  66
1
  0
VERTEX
8
0ERM
 10
520300.000000
 20
7774850.000000
 30
0.000000
 62
0
  0
VERTEX
8
0ERM
 10
521661.590000
 20
7776946.500000
 30
0.000000
 62
0
  0
SEQEND
8
0ERM
  0
POLYLINE
8
0ERM
  62
0
  66
1
  0
VERTEX
8
0ERM
 10
521300.000000
 20
7774950.000000
 30
0.000000
 62
0
  0
VERTEX
8
0ERM
 10
522116.970000
 20
7776208.000000
 30
0.000000
 62
0
  0
SEQEND
8
0ERM
  0
POLYLINE
8
0ERM
  62
0
  66
1
  0
VERTEX
8
0ERM
 10
524600.000000
 20
7773600.000000
 30
0.000000
 62
0
  0
VERTEX
8
0ERM
 10
525416.940000
 20
7774858.000000
 30
0.000000
 62
0
  0
SEQEND
8
0ERM
  0
POLYLINE
8
0ERM
  62
0
  66
1
  0
VERTEX
8
0ERM
 10
520400.000000
 20
7772150.000000
 30
0.000000
 62
0
  0
VERTEX
8
0ERM
 10
521400.000000
 20
7772150.000000
 30
0.000000
 62
0
  0
SEQEND
8
0ERM
  0
TEXT
8
0ERM
 62
19
 10
520150.000000
 20
7768620.000000
 30
0.000000
 40
4233.330078
 50
0
  1
CR20030191_EL8803_GMag_1999-lines
 62
0
  0
TEXT
8
0ERM
 62
19
 10
520150.000000
 20
7764386.669922
 30
0.000000
 40
4233.330078
 50
0
  1
25.2 km
 62
0
  0
ENDSEC
  0
EOF
