  0
SECTION
  2
HEADER
  9
$EXTMIN
 10
522800.000000
 20
7801298.000000
  9
$EXTMAX
 10
528103.000000
 20
7822453.000000
  0
ENDSEC
  0
SECTION
  2
ENTITIES
  0
POLYLINE
8
0ERM
  62
0
  66
1
  0
VERTEX
8
0ERM
 10
527904.000000
 20
7813298.000000
 30
0.000000
 62
0
  0
VERTEX
8
0ERM
 10
527820.000000
 20
7813298.000000
 30
0.000000
 62
0
  0
SEQEND
8
0ERM
  0
POLYLINE
8
0ERM
  62
0
  66
1
  0
VERTEX
8
0ERM
 10
522821.000000
 20
7813395.000000
 30
0.000000
 62
0
  0
VERTEX
8
0ERM
 10
527909.000000
 20
7813400.000000
 30
0.000000
 62
0
  0
VERTEX
8
0ERM
 10
527906.000000
 20
7813498.000000
 30
0.000000
 62
0
  0
VERTEX
8
0ERM
 10
522823.000000
 20
7813500.000000
 30
0.000000
 62
0
  0
VERTEX
8
0ERM
 10
522802.000000
 20
7813601.000000
 30
0.000000
 62
0
  0
VERTEX
8
0ERM
 10
527914.000000
 20
7813596.000000
 30
0.000000
 62
0
  0
VERTEX
8
0ERM
 10
527912.000000
 20
7813701.000000
 30
0.000000
 62
0
  0
VERTEX
8
0ERM
 10
522828.000000
 20
7813696.000000
 30
0.000000
 62
0
  0
VERTEX
8
0ERM
 10
522822.000000
 20
7813796.000000
 30
0.000000
 62
0
  0
VERTEX
8
0ERM
 10
527917.000000
 20
7813804.000000
 30
0.000000
 62
0
  0
VERTEX
8
0ERM
 10
527916.000000
 20
7813897.000000
 30
0.000000
 62
0
  0
VERTEX
8
0ERM
 10
522825.000000
 20
7813897.000000
 30
0.000000
 62
0
  0
VERTEX
8
0ERM
 10
522814.000000
 20
7814000.000000
 30
0.000000
 62
0
  0
VERTEX
8
0ERM
 10
527922.000000
 20
7814004.000000
 30
0.000000
 62
0
  0
VERTEX
8
0ERM
 10
527922.000000
 20
7814104.000000
 30
0.000000
 62
0
  0
VERTEX
8
0ERM
 10
522808.000000
 20
7814102.000000
 30
0.000000
 62
0
  0
VERTEX
8
0ERM
 10
522808.000000
 20
7814198.000000
 30
0.000000
 62
0
  0
VERTEX
8
0ERM
 10
527923.000000
 20
7814200.000000
 30
0.000000
 62
0
  0
VERTEX
8
0ERM
 10
527929.000000
 20
7814307.000000
 30
0.000000
 62
0
  0
SEQEND
8
0ERM
  0
POLYLINE
8
0ERM
  62
0
  66
1
  0
VERTEX
8
0ERM
 10
527929.000000
 20
7814307.000000
 30
0.000000
 62
0
  0
VERTEX
8
0ERM
 10
522810.000000
 20
7814310.000000
 30
0.000000
 62
0
  0
VERTEX
8
0ERM
 10
522812.000000
 20
7814398.000000
 30
0.000000
 62
0
  0
VERTEX
8
0ERM
 10
527930.000000
 20
7814404.000000
 30
0.000000
 62
0
  0
VERTEX
8
0ERM
 10
527931.000000
 20
7814499.000000
 30
0.000000
 62
0
  0
VERTEX
8
0ERM
 10
522817.000000
 20
7814503.000000
 30
0.000000
 62
0
  0
VERTEX
8
0ERM
 10
522809.000000
 20
7814598.000000
 30
0.000000
 62
0
  0
VERTEX
8
0ERM
 10
527932.000000
 20
7814601.000000
 30
0.000000
 62
0
  0
VERTEX
8
0ERM
 10
527934.000000
 20
7814701.000000
 30
0.000000
 62
0
  0
VERTEX
8
0ERM
 10
522804.000000
 20
7814696.000000
 30
0.000000
 62
0
  0
VERTEX
8
0ERM
 10
522818.000000
 20
7814806.000000
 30
0.000000
 62
0
  0
VERTEX
8
0ERM
 10
527936.000000
 20
7814805.000000
 30
0.000000
 62
0
  0
VERTEX
8
0ERM
 10
527938.000000
 20
7814902.000000
 30
0.000000
 62
0
  0
VERTEX
8
0ERM
 10
522803.000000
 20
7814900.000000
 30
0.000000
 62
0
  0
VERTEX
8
0ERM
 10
522823.000000
 20
7814999.000000
 30
0.000000
 62
0
  0
VERTEX
8
0ERM
 10
527941.000000
 20
7815004.000000
 30
0.000000
 62
0
  0
VERTEX
8
0ERM
 10
527942.000000
 20
7815097.000000
 30
0.000000
 62
0
  0
VERTEX
8
0ERM
 10
522810.000000
 20
7815101.000000
 30
0.000000
 62
0
  0
SEQEND
8
0ERM
  0
POLYLINE
8
0ERM
  62
0
  66
1
  0
VERTEX
8
0ERM
 10
527944.000000
 20
7815199.000000
 30
0.000000
 62
0
  0
VERTEX
8
0ERM
 10
522800.000000
 20
7815195.000000
 30
0.000000
 62
0
  0
VERTEX
8
0ERM
 10
522802.000000
 20
7815303.000000
 30
0.000000
 62
0
  0
VERTEX
8
0ERM
 10
527951.000000
 20
7815303.000000
 30
0.000000
 62
0
  0
VERTEX
8
0ERM
 10
527951.000000
 20
7815400.000000
 30
0.000000
 62
0
  0
VERTEX
8
0ERM
 10
522812.000000
 20
7815402.000000
 30
0.000000
 62
0
  0
VERTEX
8
0ERM
 10
522809.000000
 20
7815495.000000
 30
0.000000
 62
0
  0
VERTEX
8
0ERM
 10
527955.000000
 20
7815504.000000
 30
0.000000
 62
0
  0
VERTEX
8
0ERM
 10
527953.000000
 20
7815597.000000
 30
0.000000
 62
0
  0
VERTEX
8
0ERM
 10
522806.000000
 20
7815598.000000
 30
0.000000
 62
0
  0
VERTEX
8
0ERM
 10
522807.000000
 20
7815701.000000
 30
0.000000
 62
0
  0
VERTEX
8
0ERM
 10
527956.000000
 20
7815697.000000
 30
0.000000
 62
0
  0
VERTEX
8
0ERM
 10
527961.000000
 20
7815800.000000
 30
0.000000
 62
0
  0
VERTEX
8
0ERM
 10
522827.000000
 20
7815796.000000
 30
0.000000
 62
0
  0
VERTEX
8
0ERM
 10
522813.000000
 20
7815898.000000
 30
0.000000
 62
0
  0
VERTEX
8
0ERM
 10
527961.000000
 20
7815902.000000
 30
0.000000
 62
0
  0
VERTEX
8
0ERM
 10
527966.000000
 20
7816001.000000
 30
0.000000
 62
0
  0
VERTEX
8
0ERM
 10
522812.000000
 20
7815999.000000
 30
0.000000
 62
0
  0
VERTEX
8
0ERM
 10
522814.000000
 20
7816097.000000
 30
0.000000
 62
0
  0
SEQEND
8
0ERM
  0
POLYLINE
8
0ERM
  62
0
  66
1
  0
VERTEX
8
0ERM
 10
522814.000000
 20
7816097.000000
 30
0.000000
 62
0
  0
VERTEX
8
0ERM
 10
527969.000000
 20
7816097.000000
 30
0.000000
 62
0
  0
VERTEX
8
0ERM
 10
527967.000000
 20
7816209.000000
 30
0.000000
 62
0
  0
VERTEX
8
0ERM
 10
522823.000000
 20
7816203.000000
 30
0.000000
 62
0
  0
VERTEX
8
0ERM
 10
522823.000000
 20
7816298.000000
 30
0.000000
 62
0
  0
VERTEX
8
0ERM
 10
527968.000000
 20
7816299.000000
 30
0.000000
 62
0
  0
VERTEX
8
0ERM
 10
527970.000000
 20
7816396.000000
 30
0.000000
 62
0
  0
VERTEX
8
0ERM
 10
522824.000000
 20
7816402.000000
 30
0.000000
 62
0
  0
VERTEX
8
0ERM
 10
522817.000000
 20
7816498.000000
 30
0.000000
 62
0
  0
VERTEX
8
0ERM
 10
527974.000000
 20
7816499.000000
 30
0.000000
 62
0
  0
VERTEX
8
0ERM
 10
527975.000000
 20
7816604.000000
 30
0.000000
 62
0
  0
VERTEX
8
0ERM
 10
522830.000000
 20
7816604.000000
 30
0.000000
 62
0
  0
VERTEX
8
0ERM
 10
522822.000000
 20
7816691.000000
 30
0.000000
 62
0
  0
VERTEX
8
0ERM
 10
527980.000000
 20
7816697.000000
 30
0.000000
 62
0
  0
VERTEX
8
0ERM
 10
527980.000000
 20
7816797.000000
 30
0.000000
 62
0
  0
VERTEX
8
0ERM
 10
522830.000000
 20
7816791.000000
 30
0.000000
 62
0
  0
SEQEND
8
0ERM
  0
POLYLINE
8
0ERM
  62
0
  66
1
  0
VERTEX
8
0ERM
 10
527982.000000
 20
7816899.000000
 30
0.000000
 62
0
  0
VERTEX
8
0ERM
 10
522824.000000
 20
7816899.000000
 30
0.000000
 62
0
  0
VERTEX
8
0ERM
 10
522808.000000
 20
7817009.000000
 30
0.000000
 62
0
  0
VERTEX
8
0ERM
 10
527988.000000
 20
7816996.000000
 30
0.000000
 62
0
  0
VERTEX
8
0ERM
 10
527988.000000
 20
7817103.000000
 30
0.000000
 62
0
  0
VERTEX
8
0ERM
 10
522812.000000
 20
7817098.000000
 30
0.000000
 62
0
  0
VERTEX
8
0ERM
 10
522815.000000
 20
7817198.000000
 30
0.000000
 62
0
  0
VERTEX
8
0ERM
 10
527990.000000
 20
7817195.000000
 30
0.000000
 62
0
  0
VERTEX
8
0ERM
 10
527994.000000
 20
7817304.000000
 30
0.000000
 62
0
  0
VERTEX
8
0ERM
 10
522807.000000
 20
7817301.000000
 30
0.000000
 62
0
  0
VERTEX
8
0ERM
 10
522802.000000
 20
7817401.000000
 30
0.000000
 62
0
  0
VERTEX
8
0ERM
 10
527996.000000
 20
7817400.000000
 30
0.000000
 62
0
  0
VERTEX
8
0ERM
 10
527999.000000
 20
7817498.000000
 30
0.000000
 62
0
  0
VERTEX
8
0ERM
 10
522821.000000
 20
7817500.000000
 30
0.000000
 62
0
  0
VERTEX
8
0ERM
 10
522803.000000
 20
7817599.000000
 30
0.000000
 62
0
  0
VERTEX
8
0ERM
 10
528000.000000
 20
7817599.000000
 30
0.000000
 62
0
  0
VERTEX
8
0ERM
 10
527999.000000
 20
7817703.000000
 30
0.000000
 62
0
  0
VERTEX
8
0ERM
 10
522819.000000
 20
7817700.000000
 30
0.000000
 62
0
  0
VERTEX
8
0ERM
 10
522811.000000
 20
7817799.000000
 30
0.000000
 62
0
  0
SEQEND
8
0ERM
  0
POLYLINE
8
0ERM
  62
0
  66
1
  0
VERTEX
8
0ERM
 10
522811.000000
 20
7817799.000000
 30
0.000000
 62
0
  0
VERTEX
8
0ERM
 10
528002.000000
 20
7817800.000000
 30
0.000000
 62
0
  0
VERTEX
8
0ERM
 10
528008.000000
 20
7817898.000000
 30
0.000000
 62
0
  0
VERTEX
8
0ERM
 10
522826.000000
 20
7817900.000000
 30
0.000000
 62
0
  0
VERTEX
8
0ERM
 10
522813.000000
 20
7817997.000000
 30
0.000000
 62
0
  0
VERTEX
8
0ERM
 10
528009.000000
 20
7817998.000000
 30
0.000000
 62
0
  0
VERTEX
8
0ERM
 10
528012.000000
 20
7818099.000000
 30
0.000000
 62
0
  0
VERTEX
8
0ERM
 10
522816.000000
 20
7818099.000000
 30
0.000000
 62
0
  0
VERTEX
8
0ERM
 10
522816.000000
 20
7818201.000000
 30
0.000000
 62
0
  0
VERTEX
8
0ERM
 10
528011.000000
 20
7818202.000000
 30
0.000000
 62
0
  0
VERTEX
8
0ERM
 10
528013.000000
 20
7818300.000000
 30
0.000000
 62
0
  0
VERTEX
8
0ERM
 10
522817.000000
 20
7818300.000000
 30
0.000000
 62
0
  0
VERTEX
8
0ERM
 10
522803.000000
 20
7818400.000000
 30
0.000000
 62
0
  0
VERTEX
8
0ERM
 10
528019.000000
 20
7818401.000000
 30
0.000000
 62
0
  0
VERTEX
8
0ERM
 10
528019.000000
 20
7818500.000000
 30
0.000000
 62
0
  0
VERTEX
8
0ERM
 10
522821.000000
 20
7818501.000000
 30
0.000000
 62
0
  0
VERTEX
8
0ERM
 10
522816.000000
 20
7818599.000000
 30
0.000000
 62
0
  0
VERTEX
8
0ERM
 10
528019.000000
 20
7818600.000000
 30
0.000000
 62
0
  0
VERTEX
8
0ERM
 10
528022.000000
 20
7818702.000000
 30
0.000000
 62
0
  0
SEQEND
8
0ERM
  0
POLYLINE
8
0ERM
  62
0
  66
1
  0
VERTEX
8
0ERM
 10
528022.000000
 20
7818702.000000
 30
0.000000
 62
0
  0
VERTEX
8
0ERM
 10
522831.000000
 20
7818701.000000
 30
0.000000
 62
0
  0
VERTEX
8
0ERM
 10
522809.000000
 20
7818801.000000
 30
0.000000
 62
0
  0
VERTEX
8
0ERM
 10
528027.000000
 20
7818799.000000
 30
0.000000
 62
0
  0
VERTEX
8
0ERM
 10
528028.000000
 20
7818900.000000
 30
0.000000
 62
0
  0
VERTEX
8
0ERM
 10
522813.000000
 20
7818900.000000
 30
0.000000
 62
0
  0
VERTEX
8
0ERM
 10
522808.000000
 20
7818999.000000
 30
0.000000
 62
0
  0
VERTEX
8
0ERM
 10
528029.000000
 20
7819000.000000
 30
0.000000
 62
0
  0
VERTEX
8
0ERM
 10
528033.000000
 20
7819099.000000
 30
0.000000
 62
0
  0
VERTEX
8
0ERM
 10
522815.000000
 20
7819100.000000
 30
0.000000
 62
0
  0
VERTEX
8
0ERM
 10
522803.000000
 20
7819203.000000
 30
0.000000
 62
0
  0
VERTEX
8
0ERM
 10
528033.000000
 20
7819201.000000
 30
0.000000
 62
0
  0
VERTEX
8
0ERM
 10
528038.000000
 20
7819301.000000
 30
0.000000
 62
0
  0
VERTEX
8
0ERM
 10
522820.000000
 20
7819300.000000
 30
0.000000
 62
0
  0
VERTEX
8
0ERM
 10
522822.000000
 20
7819400.000000
 30
0.000000
 62
0
  0
VERTEX
8
0ERM
 10
528039.000000
 20
7819398.000000
 30
0.000000
 62
0
  0
VERTEX
8
0ERM
 10
528039.000000
 20
7819501.000000
 30
0.000000
 62
0
  0
VERTEX
8
0ERM
 10
522832.000000
 20
7819500.000000
 30
0.000000
 62
0
  0
VERTEX
8
0ERM
 10
522804.000000
 20
7819601.000000
 30
0.000000
 62
0
  0
SEQEND
8
0ERM
  0
POLYLINE
8
0ERM
  62
0
  66
1
  0
VERTEX
8
0ERM
 10
522804.000000
 20
7819601.000000
 30
0.000000
 62
0
  0
VERTEX
8
0ERM
 10
528045.000000
 20
7819601.000000
 30
0.000000
 62
0
  0
VERTEX
8
0ERM
 10
528045.000000
 20
7819700.000000
 30
0.000000
 62
0
  0
VERTEX
8
0ERM
 10
522825.000000
 20
7819699.000000
 30
0.000000
 62
0
  0
VERTEX
8
0ERM
 10
522808.000000
 20
7819799.000000
 30
0.000000
 62
0
  0
VERTEX
8
0ERM
 10
528050.000000
 20
7819800.000000
 30
0.000000
 62
0
  0
VERTEX
8
0ERM
 10
528049.000000
 20
7819903.000000
 30
0.000000
 62
0
  0
VERTEX
8
0ERM
 10
522823.000000
 20
7819899.000000
 30
0.000000
 62
0
  0
VERTEX
8
0ERM
 10
522814.000000
 20
7819996.000000
 30
0.000000
 62
0
  0
VERTEX
8
0ERM
 10
528054.000000
 20
7820000.000000
 30
0.000000
 62
0
  0
VERTEX
8
0ERM
 10
528052.000000
 20
7820101.000000
 30
0.000000
 62
0
  0
VERTEX
8
0ERM
 10
522812.000000
 20
7820101.000000
 30
0.000000
 62
0
  0
VERTEX
8
0ERM
 10
522802.000000
 20
7820197.000000
 30
0.000000
 62
0
  0
VERTEX
8
0ERM
 10
528056.000000
 20
7820201.000000
 30
0.000000
 62
0
  0
VERTEX
8
0ERM
 10
528058.000000
 20
7820297.000000
 30
0.000000
 62
0
  0
VERTEX
8
0ERM
 10
522829.000000
 20
7820302.000000
 30
0.000000
 62
0
  0
VERTEX
8
0ERM
 10
522819.000000
 20
7820402.000000
 30
0.000000
 62
0
  0
VERTEX
8
0ERM
 10
528062.000000
 20
7820401.000000
 30
0.000000
 62
0
  0
VERTEX
8
0ERM
 10
528061.000000
 20
7820501.000000
 30
0.000000
 62
0
  0
SEQEND
8
0ERM
  0
POLYLINE
8
0ERM
  62
0
  66
1
  0
VERTEX
8
0ERM
 10
528061.000000
 20
7820501.000000
 30
0.000000
 62
0
  0
VERTEX
8
0ERM
 10
522828.000000
 20
7820501.000000
 30
0.000000
 62
0
  0
VERTEX
8
0ERM
 10
522822.000000
 20
7820601.000000
 30
0.000000
 62
0
  0
VERTEX
8
0ERM
 10
528067.000000
 20
7820600.000000
 30
0.000000
 62
0
  0
VERTEX
8
0ERM
 10
528068.000000
 20
7820702.000000
 30
0.000000
 62
0
  0
VERTEX
8
0ERM
 10
522820.000000
 20
7820702.000000
 30
0.000000
 62
0
  0
VERTEX
8
0ERM
 10
522822.000000
 20
7820800.000000
 30
0.000000
 62
0
  0
VERTEX
8
0ERM
 10
528071.000000
 20
7820799.000000
 30
0.000000
 62
0
  0
VERTEX
8
0ERM
 10
528075.000000
 20
7820898.000000
 30
0.000000
 62
0
  0
VERTEX
8
0ERM
 10
522818.000000
 20
7820899.000000
 30
0.000000
 62
0
  0
VERTEX
8
0ERM
 10
522802.000000
 20
7820999.000000
 30
0.000000
 62
0
  0
VERTEX
8
0ERM
 10
528075.000000
 20
7821001.000000
 30
0.000000
 62
0
  0
VERTEX
8
0ERM
 10
528076.000000
 20
7821100.000000
 30
0.000000
 62
0
  0
VERTEX
8
0ERM
 10
522823.000000
 20
7821100.000000
 30
0.000000
 62
0
  0
VERTEX
8
0ERM
 10
522806.000000
 20
7821197.000000
 30
0.000000
 62
0
  0
VERTEX
8
0ERM
 10
528081.000000
 20
7821199.000000
 30
0.000000
 62
0
  0
VERTEX
8
0ERM
 10
528081.000000
 20
7821299.000000
 30
0.000000
 62
0
  0
VERTEX
8
0ERM
 10
522825.000000
 20
7821300.000000
 30
0.000000
 62
0
  0
VERTEX
8
0ERM
 10
522804.000000
 20
7821399.000000
 30
0.000000
 62
0
  0
SEQEND
8
0ERM
  0
POLYLINE
8
0ERM
  62
0
  66
1
  0
VERTEX
8
0ERM
 10
522804.000000
 20
7821399.000000
 30
0.000000
 62
0
  0
VERTEX
8
0ERM
 10
528085.000000
 20
7821401.000000
 30
0.000000
 62
0
  0
VERTEX
8
0ERM
 10
528087.000000
 20
7821499.000000
 30
0.000000
 62
0
  0
VERTEX
8
0ERM
 10
522826.000000
 20
7821498.000000
 30
0.000000
 62
0
  0
VERTEX
8
0ERM
 10
522806.000000
 20
7821599.000000
 30
0.000000
 62
0
  0
VERTEX
8
0ERM
 10
528086.000000
 20
7821600.000000
 30
0.000000
 62
0
  0
VERTEX
8
0ERM
 10
528088.000000
 20
7821699.000000
 30
0.000000
 62
0
  0
VERTEX
8
0ERM
 10
522822.000000
 20
7821702.000000
 30
0.000000
 62
0
  0
VERTEX
8
0ERM
 10
522816.000000
 20
7821799.000000
 30
0.000000
 62
0
  0
VERTEX
8
0ERM
 10
528094.000000
 20
7821799.000000
 30
0.000000
 62
0
  0
VERTEX
8
0ERM
 10
528093.000000
 20
7821900.000000
 30
0.000000
 62
0
  0
VERTEX
8
0ERM
 10
522813.000000
 20
7821903.000000
 30
0.000000
 62
0
  0
VERTEX
8
0ERM
 10
522823.000000
 20
7821996.000000
 30
0.000000
 62
0
  0
VERTEX
8
0ERM
 10
528097.000000
 20
7821999.000000
 30
0.000000
 62
0
  0
VERTEX
8
0ERM
 10
528098.000000
 20
7822100.000000
 30
0.000000
 62
0
  0
VERTEX
8
0ERM
 10
522817.000000
 20
7822100.000000
 30
0.000000
 62
0
  0
VERTEX
8
0ERM
 10
522800.000000
 20
7822193.000000
 30
0.000000
 62
0
  0
VERTEX
8
0ERM
 10
528103.000000
 20
7822202.000000
 30
0.000000
 62
0
  0
VERTEX
8
0ERM
 10
528102.000000
 20
7822300.000000
 30
0.000000
 62
0
  0
SEQEND
8
0ERM
  0
POLYLINE
8
0ERM
  62
0
  66
1
  0
VERTEX
8
0ERM
 10
528102.000000
 20
7822300.000000
 30
0.000000
 62
0
  0
VERTEX
8
0ERM
 10
522813.000000
 20
7822297.000000
 30
0.000000
 62
0
  0
SEQEND
8
0ERM
  0
POLYLINE
8
0ERM
  62
0
  66
1
  0
VERTEX
8
0ERM
 10
528007.000000
 20
7822437.000000
 30
0.000000
 62
0
  0
VERTEX
8
0ERM
 10
527999.000000
 20
7817441.000000
 30
0.000000
 62
0
  0
SEQEND
8
0ERM
  0
POLYLINE
8
0ERM
  62
0
  66
1
  0
VERTEX
8
0ERM
 10
526998.000000
 20
7813325.000000
 30
0.000000
 62
0
  0
VERTEX
8
0ERM
 10
527002.000000
 20
7822441.000000
 30
0.000000
 62
0
  0
SEQEND
8
0ERM
  0
POLYLINE
8
0ERM
  62
0
  66
1
  0
VERTEX
8
0ERM
 10
525995.000000
 20
7822442.000000
 30
0.000000
 62
0
  0
VERTEX
8
0ERM
 10
526001.000000
 20
7813317.000000
 30
0.000000
 62
0
  0
SEQEND
8
0ERM
  0
POLYLINE
8
0ERM
  62
0
  66
1
  0
VERTEX
8
0ERM
 10
525013.000000
 20
7813305.000000
 30
0.000000
 62
0
  0
VERTEX
8
0ERM
 10
525000.000000
 20
7822448.000000
 30
0.000000
 62
0
  0
SEQEND
8
0ERM
  0
POLYLINE
8
0ERM
  62
0
  66
1
  0
VERTEX
8
0ERM
 10
524000.000000
 20
7822450.000000
 30
0.000000
 62
0
  0
VERTEX
8
0ERM
 10
524001.000000
 20
7813309.000000
 30
0.000000
 62
0
  0
SEQEND
8
0ERM
  0
POLYLINE
8
0ERM
  62
0
  66
1
  0
VERTEX
8
0ERM
 10
523006.000000
 20
7813323.000000
 30
0.000000
 62
0
  0
VERTEX
8
0ERM
 10
522998.000000
 20
7822453.000000
 30
0.000000
 62
0
  0
SEQEND
8
0ERM
  0
TEXT
8
0ERM
 62
19
 10
522800.000000
 20
7809760.000000
 30
0.000000
 40
4233.330078
 50
0
  1
CR20010287_PargeeEL8734_Airmag_West-lines
 62
0
  0
TEXT
8
0ERM
 62
19
 10
522800.000000
 20
7805526.669922
 30
0.000000
 40
4233.330078
 50
0
  1
526.9 km  090
 62
0
  0
ENDSEC
  0
EOF
