  0
SECTION
  2
HEADER
  9
$EXTMIN
 10
522997.000000
 20
7792808.000000
  9
$EXTMAX
 10
549198.000000
 20
7831999.000000
  0
ENDSEC
  0
SECTION
  2
ENTITIES
  0
POLYLINE
8
0ERM
  62
0
  66
1
  0
VERTEX
8
0ERM
 10
545396.440000
 20
7812911.000000
 30
0.000000
 62
0
  0
VERTEX
8
0ERM
 10
549103.000000
 20
7812900.000000
 30
0.000000
 62
0
  0
VERTEX
8
0ERM
 10
549104.000000
 20
7812996.000000
 30
0.000000
 62
0
  0
VERTEX
8
0ERM
 10
545393.000000
 20
7813000.000000
 30
0.000000
 62
0
  0
VERTEX
8
0ERM
 10
545390.000000
 20
7813098.000000
 30
0.000000
 62
0
  0
VERTEX
8
0ERM
 10
549107.000000
 20
7813100.000000
 30
0.000000
 62
0
  0
SEQEND
8
0ERM
  0
POLYLINE
8
0ERM
  62
0
  66
1
  0
VERTEX
8
0ERM
 10
545387.000000
 20
7813193.000000
 30
0.000000
 62
0
  0
VERTEX
8
0ERM
 10
549107.000000
 20
7813198.000000
 30
0.000000
 62
0
  0
VERTEX
8
0ERM
 10
549110.000000
 20
7813298.000000
 30
0.000000
 62
0
  0
VERTEX
8
0ERM
 10
545385.000000
 20
7813302.000000
 30
0.000000
 62
0
  0
VERTEX
8
0ERM
 10
545384.000000
 20
7813397.000000
 30
0.000000
 62
0
  0
VERTEX
8
0ERM
 10
549109.000000
 20
7813399.000000
 30
0.000000
 62
0
  0
VERTEX
8
0ERM
 10
549114.000000
 20
7813493.000000
 30
0.000000
 62
0
  0
VERTEX
8
0ERM
 10
545384.000000
 20
7813498.000000
 30
0.000000
 62
0
  0
VERTEX
8
0ERM
 10
545382.000000
 20
7813600.000000
 30
0.000000
 62
0
  0
VERTEX
8
0ERM
 10
549116.000000
 20
7813597.000000
 30
0.000000
 62
0
  0
VERTEX
8
0ERM
 10
549116.000000
 20
7813704.000000
 30
0.000000
 62
0
  0
VERTEX
8
0ERM
 10
545376.000000
 20
7813699.000000
 30
0.000000
 62
0
  0
VERTEX
8
0ERM
 10
545377.000000
 20
7813796.000000
 30
0.000000
 62
0
  0
VERTEX
8
0ERM
 10
549116.000000
 20
7813799.000000
 30
0.000000
 62
0
  0
VERTEX
8
0ERM
 10
549119.000000
 20
7813904.000000
 30
0.000000
 62
0
  0
VERTEX
8
0ERM
 10
545375.000000
 20
7813899.000000
 30
0.000000
 62
0
  0
VERTEX
8
0ERM
 10
545371.000000
 20
7814001.000000
 30
0.000000
 62
0
  0
VERTEX
8
0ERM
 10
549121.000000
 20
7813996.000000
 30
0.000000
 62
0
  0
VERTEX
8
0ERM
 10
549124.000000
 20
7814095.000000
 30
0.000000
 62
0
  0
SEQEND
8
0ERM
  0
POLYLINE
8
0ERM
  62
0
  66
1
  0
VERTEX
8
0ERM
 10
549124.000000
 20
7814095.000000
 30
0.000000
 62
0
  0
VERTEX
8
0ERM
 10
545369.000000
 20
7814098.000000
 30
0.000000
 62
0
  0
VERTEX
8
0ERM
 10
545370.000000
 20
7814196.000000
 30
0.000000
 62
0
  0
VERTEX
8
0ERM
 10
549124.000000
 20
7814192.000000
 30
0.000000
 62
0
  0
VERTEX
8
0ERM
 10
549123.000000
 20
7814299.000000
 30
0.000000
 62
0
  0
VERTEX
8
0ERM
 10
545365.000000
 20
7814298.000000
 30
0.000000
 62
0
  0
VERTEX
8
0ERM
 10
545363.000000
 20
7814402.000000
 30
0.000000
 62
0
  0
VERTEX
8
0ERM
 10
549129.000000
 20
7814400.000000
 30
0.000000
 62
0
  0
VERTEX
8
0ERM
 10
549129.000000
 20
7814495.000000
 30
0.000000
 62
0
  0
VERTEX
8
0ERM
 10
545363.000000
 20
7814494.000000
 30
0.000000
 62
0
  0
VERTEX
8
0ERM
 10
545362.000000
 20
7814599.000000
 30
0.000000
 62
0
  0
VERTEX
8
0ERM
 10
549129.000000
 20
7814600.000000
 30
0.000000
 62
0
  0
VERTEX
8
0ERM
 10
549133.000000
 20
7814706.000000
 30
0.000000
 62
0
  0
VERTEX
8
0ERM
 10
545361.000000
 20
7814697.000000
 30
0.000000
 62
0
  0
VERTEX
8
0ERM
 10
545358.000000
 20
7814802.000000
 30
0.000000
 62
0
  0
VERTEX
8
0ERM
 10
549132.000000
 20
7814792.000000
 30
0.000000
 62
0
  0
VERTEX
8
0ERM
 10
549136.000000
 20
7814899.000000
 30
0.000000
 62
0
  0
VERTEX
8
0ERM
 10
545356.000000
 20
7814902.000000
 30
0.000000
 62
0
  0
VERTEX
8
0ERM
 10
545355.000000
 20
7815001.000000
 30
0.000000
 62
0
  0
SEQEND
8
0ERM
  0
POLYLINE
8
0ERM
  62
0
  66
1
  0
VERTEX
8
0ERM
 10
545355.000000
 20
7815001.000000
 30
0.000000
 62
0
  0
VERTEX
8
0ERM
 10
549139.000000
 20
7815006.000000
 30
0.000000
 62
0
  0
VERTEX
8
0ERM
 10
549141.000000
 20
7815098.000000
 30
0.000000
 62
0
  0
VERTEX
8
0ERM
 10
545354.000000
 20
7815098.000000
 30
0.000000
 62
0
  0
SEQEND
8
0ERM
  0
POLYLINE
8
0ERM
  62
0
  66
1
  0
VERTEX
8
0ERM
 10
549144.000000
 20
7815198.000000
 30
0.000000
 62
0
  0
VERTEX
8
0ERM
 10
545350.000000
 20
7815194.000000
 30
0.000000
 62
0
  0
VERTEX
8
0ERM
 10
545345.000000
 20
7815299.000000
 30
0.000000
 62
0
  0
VERTEX
8
0ERM
 10
549143.000000
 20
7815300.000000
 30
0.000000
 62
0
  0
VERTEX
8
0ERM
 10
549142.000000
 20
7815399.000000
 30
0.000000
 62
0
  0
VERTEX
8
0ERM
 10
545344.000000
 20
7815403.000000
 30
0.000000
 62
0
  0
VERTEX
8
0ERM
 10
545342.000000
 20
7815500.000000
 30
0.000000
 62
0
  0
VERTEX
8
0ERM
 10
549146.000000
 20
7815494.000000
 30
0.000000
 62
0
  0
VERTEX
8
0ERM
 10
549147.000000
 20
7815594.000000
 30
0.000000
 62
0
  0
VERTEX
8
0ERM
 10
545341.000000
 20
7815600.000000
 30
0.000000
 62
0
  0
VERTEX
8
0ERM
 10
545341.000000
 20
7815700.000000
 30
0.000000
 62
0
  0
VERTEX
8
0ERM
 10
549148.000000
 20
7815699.000000
 30
0.000000
 62
0
  0
VERTEX
8
0ERM
 10
549154.000000
 20
7815804.000000
 30
0.000000
 62
0
  0
VERTEX
8
0ERM
 10
545337.000000
 20
7815800.000000
 30
0.000000
 62
0
  0
VERTEX
8
0ERM
 10
545338.000000
 20
7815895.000000
 30
0.000000
 62
0
  0
VERTEX
8
0ERM
 10
549153.000000
 20
7815903.000000
 30
0.000000
 62
0
  0
VERTEX
8
0ERM
 10
549154.000000
 20
7816001.000000
 30
0.000000
 62
0
  0
VERTEX
8
0ERM
 10
545333.000000
 20
7816004.000000
 30
0.000000
 62
0
  0
VERTEX
8
0ERM
 10
545331.000000
 20
7816098.000000
 30
0.000000
 62
0
  0
SEQEND
8
0ERM
  0
POLYLINE
8
0ERM
  62
0
  66
1
  0
VERTEX
8
0ERM
 10
545331.000000
 20
7816098.000000
 30
0.000000
 62
0
  0
VERTEX
8
0ERM
 10
549158.000000
 20
7816101.000000
 30
0.000000
 62
0
  0
VERTEX
8
0ERM
 10
549158.000000
 20
7816195.000000
 30
0.000000
 62
0
  0
VERTEX
8
0ERM
 10
545329.000000
 20
7816201.000000
 30
0.000000
 62
0
  0
VERTEX
8
0ERM
 10
545330.000000
 20
7816298.000000
 30
0.000000
 62
0
  0
VERTEX
8
0ERM
 10
549159.000000
 20
7816299.000000
 30
0.000000
 62
0
  0
VERTEX
8
0ERM
 10
549163.000000
 20
7816389.000000
 30
0.000000
 62
0
  0
VERTEX
8
0ERM
 10
545326.000000
 20
7816403.000000
 30
0.000000
 62
0
  0
VERTEX
8
0ERM
 10
545322.000000
 20
7816503.000000
 30
0.000000
 62
0
  0
VERTEX
8
0ERM
 10
549164.000000
 20
7816500.000000
 30
0.000000
 62
0
  0
VERTEX
8
0ERM
 10
549167.000000
 20
7816595.000000
 30
0.000000
 62
0
  0
VERTEX
8
0ERM
 10
545322.000000
 20
7816599.000000
 30
0.000000
 62
0
  0
VERTEX
8
0ERM
 10
545323.000000
 20
7816697.000000
 30
0.000000
 62
0
  0
VERTEX
8
0ERM
 10
549169.000000
 20
7816695.000000
 30
0.000000
 62
0
  0
VERTEX
8
0ERM
 10
549170.000000
 20
7816804.000000
 30
0.000000
 62
0
  0
VERTEX
8
0ERM
 10
545317.000000
 20
7816800.000000
 30
0.000000
 62
0
  0
SEQEND
8
0ERM
  0
POLYLINE
8
0ERM
  62
0
  66
1
  0
VERTEX
8
0ERM
 10
549171.000000
 20
7816898.000000
 30
0.000000
 62
0
  0
VERTEX
8
0ERM
 10
545316.000000
 20
7816899.000000
 30
0.000000
 62
0
  0
VERTEX
8
0ERM
 10
545317.000000
 20
7816995.000000
 30
0.000000
 62
0
  0
VERTEX
8
0ERM
 10
549174.000000
 20
7816999.000000
 30
0.000000
 62
0
  0
VERTEX
8
0ERM
 10
549176.000000
 20
7817091.000000
 30
0.000000
 62
0
  0
VERTEX
8
0ERM
 10
545315.000000
 20
7817098.000000
 30
0.000000
 62
0
  0
VERTEX
8
0ERM
 10
545313.000000
 20
7817199.000000
 30
0.000000
 62
0
  0
VERTEX
8
0ERM
 10
549176.000000
 20
7817203.000000
 30
0.000000
 62
0
  0
VERTEX
8
0ERM
 10
549175.000000
 20
7817298.000000
 30
0.000000
 62
0
  0
VERTEX
8
0ERM
 10
545311.000000
 20
7817304.000000
 30
0.000000
 62
0
  0
VERTEX
8
0ERM
 10
545305.000000
 20
7817401.000000
 30
0.000000
 62
0
  0
VERTEX
8
0ERM
 10
549179.000000
 20
7817401.000000
 30
0.000000
 62
0
  0
VERTEX
8
0ERM
 10
549184.000000
 20
7817494.000000
 30
0.000000
 62
0
  0
VERTEX
8
0ERM
 10
545305.000000
 20
7817498.000000
 30
0.000000
 62
0
  0
VERTEX
8
0ERM
 10
545305.000000
 20
7817600.000000
 30
0.000000
 62
0
  0
VERTEX
8
0ERM
 10
549175.000000
 20
7817601.000000
 30
0.000000
 62
0
  0
VERTEX
8
0ERM
 10
549186.000000
 20
7817695.000000
 30
0.000000
 62
0
  0
VERTEX
8
0ERM
 10
545302.000000
 20
7817701.000000
 30
0.000000
 62
0
  0
VERTEX
8
0ERM
 10
545301.000000
 20
7817799.000000
 30
0.000000
 62
0
  0
SEQEND
8
0ERM
  0
POLYLINE
8
0ERM
  62
0
  66
1
  0
VERTEX
8
0ERM
 10
545301.000000
 20
7817799.000000
 30
0.000000
 62
0
  0
VERTEX
8
0ERM
 10
549173.000000
 20
7817799.000000
 30
0.000000
 62
0
  0
VERTEX
8
0ERM
 10
549173.000000
 20
7817902.000000
 30
0.000000
 62
0
  0
VERTEX
8
0ERM
 10
543285.000000
 20
7817900.000000
 30
0.000000
 62
0
  0
SEQEND
8
0ERM
  0
POLYLINE
8
0ERM
  62
0
  66
1
  0
VERTEX
8
0ERM
 10
538983.000000
 20
7818000.000000
 30
0.000000
 62
0
  0
VERTEX
8
0ERM
 10
549180.000000
 20
7817999.000000
 30
0.000000
 62
0
  0
VERTEX
8
0ERM
 10
549177.000000
 20
7818089.000000
 30
0.000000
 62
0
  0
VERTEX
8
0ERM
 10
536696.000000
 20
7818100.000000
 30
0.000000
 62
0
  0
VERTEX
8
0ERM
 10
536695.000000
 20
7818199.000000
 30
0.000000
 62
0
  0
VERTEX
8
0ERM
 10
549175.000000
 20
7818200.000000
 30
0.000000
 62
0
  0
VERTEX
8
0ERM
 10
549181.000000
 20
7818297.000000
 30
0.000000
 62
0
  0
VERTEX
8
0ERM
 10
536693.000000
 20
7818301.000000
 30
0.000000
 62
0
  0
VERTEX
8
0ERM
 10
536691.000000
 20
7818399.000000
 30
0.000000
 62
0
  0
VERTEX
8
0ERM
 10
549177.000000
 20
7818399.000000
 30
0.000000
 62
0
  0
VERTEX
8
0ERM
 10
549172.000000
 20
7818494.000000
 30
0.000000
 62
0
  0
VERTEX
8
0ERM
 10
536692.000000
 20
7818499.000000
 30
0.000000
 62
0
  0
VERTEX
8
0ERM
 10
536689.000000
 20
7818600.000000
 30
0.000000
 62
0
  0
VERTEX
8
0ERM
 10
549194.000000
 20
7818601.000000
 30
0.000000
 62
0
  0
VERTEX
8
0ERM
 10
549174.000000
 20
7818696.000000
 30
0.000000
 62
0
  0
VERTEX
8
0ERM
 10
536687.000000
 20
7818701.000000
 30
0.000000
 62
0
  0
VERTEX
8
0ERM
 10
536686.000000
 20
7818797.000000
 30
0.000000
 62
0
  0
VERTEX
8
0ERM
 10
549177.000000
 20
7818798.000000
 30
0.000000
 62
0
  0
VERTEX
8
0ERM
 10
549185.000000
 20
7818902.000000
 30
0.000000
 62
0
  0
SEQEND
8
0ERM
  0
POLYLINE
8
0ERM
  62
0
  66
1
  0
VERTEX
8
0ERM
 10
549185.000000
 20
7818902.000000
 30
0.000000
 62
0
  0
VERTEX
8
0ERM
 10
536686.000000
 20
7818903.000000
 30
0.000000
 62
0
  0
VERTEX
8
0ERM
 10
536683.000000
 20
7819001.000000
 30
0.000000
 62
0
  0
VERTEX
8
0ERM
 10
549189.000000
 20
7819000.000000
 30
0.000000
 62
0
  0
VERTEX
8
0ERM
 10
549172.000000
 20
7819092.000000
 30
0.000000
 62
0
  0
VERTEX
8
0ERM
 10
536682.000000
 20
7819103.000000
 30
0.000000
 62
0
  0
VERTEX
8
0ERM
 10
536683.000000
 20
7819201.000000
 30
0.000000
 62
0
  0
VERTEX
8
0ERM
 10
549187.000000
 20
7819198.000000
 30
0.000000
 62
0
  0
VERTEX
8
0ERM
 10
549198.000000
 20
7819302.000000
 30
0.000000
 62
0
  0
VERTEX
8
0ERM
 10
536682.000000
 20
7819300.000000
 30
0.000000
 62
0
  0
VERTEX
8
0ERM
 10
536681.000000
 20
7819401.000000
 30
0.000000
 62
0
  0
VERTEX
8
0ERM
 10
549175.000000
 20
7819400.000000
 30
0.000000
 62
0
  0
VERTEX
8
0ERM
 10
549185.000000
 20
7819500.000000
 30
0.000000
 62
0
  0
VERTEX
8
0ERM
 10
536682.000000
 20
7819500.000000
 30
0.000000
 62
0
  0
VERTEX
8
0ERM
 10
536678.000000
 20
7819599.000000
 30
0.000000
 62
0
  0
VERTEX
8
0ERM
 10
549172.000000
 20
7819599.000000
 30
0.000000
 62
0
  0
VERTEX
8
0ERM
 10
549194.000000
 20
7819695.000000
 30
0.000000
 62
0
  0
VERTEX
8
0ERM
 10
536676.000000
 20
7819700.000000
 30
0.000000
 62
0
  0
VERTEX
8
0ERM
 10
536674.000000
 20
7819802.000000
 30
0.000000
 62
0
  0
SEQEND
8
0ERM
  0
POLYLINE
8
0ERM
  62
0
  66
1
  0
VERTEX
8
0ERM
 10
536674.000000
 20
7819802.000000
 30
0.000000
 62
0
  0
VERTEX
8
0ERM
 10
549195.000000
 20
7819801.000000
 30
0.000000
 62
0
  0
VERTEX
8
0ERM
 10
549197.000000
 20
7819901.000000
 30
0.000000
 62
0
  0
VERTEX
8
0ERM
 10
536677.000000
 20
7819900.000000
 30
0.000000
 62
0
  0
VERTEX
8
0ERM
 10
536672.000000
 20
7820000.000000
 30
0.000000
 62
0
  0
VERTEX
8
0ERM
 10
549177.000000
 20
7819998.000000
 30
0.000000
 62
0
  0
VERTEX
8
0ERM
 10
549195.000000
 20
7820100.000000
 30
0.000000
 62
0
  0
VERTEX
8
0ERM
 10
536672.000000
 20
7820100.000000
 30
0.000000
 62
0
  0
VERTEX
8
0ERM
 10
536673.000000
 20
7820199.000000
 30
0.000000
 62
0
  0
VERTEX
8
0ERM
 10
549180.000000
 20
7820199.000000
 30
0.000000
 62
0
  0
VERTEX
8
0ERM
 10
549192.000000
 20
7820305.000000
 30
0.000000
 62
0
  0
VERTEX
8
0ERM
 10
536669.000000
 20
7820302.000000
 30
0.000000
 62
0
  0
VERTEX
8
0ERM
 10
536669.000000
 20
7820400.000000
 30
0.000000
 62
0
  0
VERTEX
8
0ERM
 10
549185.000000
 20
7820401.000000
 30
0.000000
 62
0
  0
VERTEX
8
0ERM
 10
549189.000000
 20
7820505.000000
 30
0.000000
 62
0
  0
VERTEX
8
0ERM
 10
536667.000000
 20
7820497.000000
 30
0.000000
 62
0
  0
VERTEX
8
0ERM
 10
536669.000000
 20
7820601.000000
 30
0.000000
 62
0
  0
VERTEX
8
0ERM
 10
549180.000000
 20
7820600.000000
 30
0.000000
 62
0
  0
VERTEX
8
0ERM
 10
549185.000000
 20
7820697.000000
 30
0.000000
 62
0
  0
SEQEND
8
0ERM
  0
POLYLINE
8
0ERM
  62
0
  66
1
  0
VERTEX
8
0ERM
 10
549185.000000
 20
7820697.000000
 30
0.000000
 62
0
  0
VERTEX
8
0ERM
 10
536665.000000
 20
7820700.000000
 30
0.000000
 62
0
  0
VERTEX
8
0ERM
 10
536666.000000
 20
7820802.000000
 30
0.000000
 62
0
  0
VERTEX
8
0ERM
 10
549177.000000
 20
7820799.000000
 30
0.000000
 62
0
  0
VERTEX
8
0ERM
 10
549181.000000
 20
7820906.000000
 30
0.000000
 62
0
  0
VERTEX
8
0ERM
 10
536662.000000
 20
7820902.000000
 30
0.000000
 62
0
  0
VERTEX
8
0ERM
 10
536665.000000
 20
7821000.000000
 30
0.000000
 62
0
  0
VERTEX
8
0ERM
 10
549172.000000
 20
7821000.000000
 30
0.000000
 62
0
  0
VERTEX
8
0ERM
 10
549187.000000
 20
7821100.000000
 30
0.000000
 62
0
  0
VERTEX
8
0ERM
 10
536663.000000
 20
7821101.000000
 30
0.000000
 62
0
  0
VERTEX
8
0ERM
 10
536661.000000
 20
7821200.000000
 30
0.000000
 62
0
  0
VERTEX
8
0ERM
 10
549183.000000
 20
7821196.000000
 30
0.000000
 62
0
  0
VERTEX
8
0ERM
 10
549181.000000
 20
7821298.000000
 30
0.000000
 62
0
  0
VERTEX
8
0ERM
 10
536658.000000
 20
7821298.000000
 30
0.000000
 62
0
  0
VERTEX
8
0ERM
 10
536657.000000
 20
7821401.000000
 30
0.000000
 62
0
  0
VERTEX
8
0ERM
 10
549173.000000
 20
7821401.000000
 30
0.000000
 62
0
  0
VERTEX
8
0ERM
 10
549183.000000
 20
7821501.000000
 30
0.000000
 62
0
  0
VERTEX
8
0ERM
 10
536656.000000
 20
7821498.000000
 30
0.000000
 62
0
  0
VERTEX
8
0ERM
 10
536658.000000
 20
7821601.000000
 30
0.000000
 62
0
  0
SEQEND
8
0ERM
  0
POLYLINE
8
0ERM
  62
0
  66
1
  0
VERTEX
8
0ERM
 10
536658.000000
 20
7821601.000000
 30
0.000000
 62
0
  0
VERTEX
8
0ERM
 10
549190.000000
 20
7821599.000000
 30
0.000000
 62
0
  0
VERTEX
8
0ERM
 10
549179.000000
 20
7821700.000000
 30
0.000000
 62
0
  0
VERTEX
8
0ERM
 10
536653.000000
 20
7821696.000000
 30
0.000000
 62
0
  0
VERTEX
8
0ERM
 10
536656.000000
 20
7821801.000000
 30
0.000000
 62
0
  0
VERTEX
8
0ERM
 10
549170.000000
 20
7821800.000000
 30
0.000000
 62
0
  0
VERTEX
8
0ERM
 10
549186.000000
 20
7821899.000000
 30
0.000000
 62
0
  0
VERTEX
8
0ERM
 10
536652.000000
 20
7821898.000000
 30
0.000000
 62
0
  0
VERTEX
8
0ERM
 10
536651.000000
 20
7822000.000000
 30
0.000000
 62
0
  0
VERTEX
8
0ERM
 10
549178.000000
 20
7821999.000000
 30
0.000000
 62
0
  0
VERTEX
8
0ERM
 10
549187.000000
 20
7822101.000000
 30
0.000000
 62
0
  0
VERTEX
8
0ERM
 10
536649.000000
 20
7822099.000000
 30
0.000000
 62
0
  0
VERTEX
8
0ERM
 10
536651.000000
 20
7822200.000000
 30
0.000000
 62
0
  0
VERTEX
8
0ERM
 10
549179.000000
 20
7822198.000000
 30
0.000000
 62
0
  0
VERTEX
8
0ERM
 10
549179.000000
 20
7822305.000000
 30
0.000000
 62
0
  0
VERTEX
8
0ERM
 10
536648.000000
 20
7822299.000000
 30
0.000000
 62
0
  0
VERTEX
8
0ERM
 10
536647.000000
 20
7822400.000000
 30
0.000000
 62
0
  0
VERTEX
8
0ERM
 10
549188.000000
 20
7822400.000000
 30
0.000000
 62
0
  0
VERTEX
8
0ERM
 10
549180.000000
 20
7822495.000000
 30
0.000000
 62
0
  0
SEQEND
8
0ERM
  0
POLYLINE
8
0ERM
  62
0
  66
1
  0
VERTEX
8
0ERM
 10
549180.000000
 20
7822495.000000
 30
0.000000
 62
0
  0
VERTEX
8
0ERM
 10
536646.000000
 20
7822500.000000
 30
0.000000
 62
0
  0
VERTEX
8
0ERM
 10
536647.000000
 20
7822600.000000
 30
0.000000
 62
0
  0
VERTEX
8
0ERM
 10
549185.000000
 20
7822598.000000
 30
0.000000
 62
0
  0
VERTEX
8
0ERM
 10
549196.000000
 20
7822703.000000
 30
0.000000
 62
0
  0
VERTEX
8
0ERM
 10
536642.000000
 20
7822701.000000
 30
0.000000
 62
0
  0
VERTEX
8
0ERM
 10
536641.000000
 20
7822799.000000
 30
0.000000
 62
0
  0
VERTEX
8
0ERM
 10
549194.000000
 20
7822800.000000
 30
0.000000
 62
0
  0
VERTEX
8
0ERM
 10
549178.000000
 20
7822901.000000
 30
0.000000
 62
0
  0
VERTEX
8
0ERM
 10
536640.000000
 20
7822900.000000
 30
0.000000
 62
0
  0
VERTEX
8
0ERM
 10
536640.000000
 20
7822999.000000
 30
0.000000
 62
0
  0
VERTEX
8
0ERM
 10
549177.000000
 20
7823002.000000
 30
0.000000
 62
0
  0
VERTEX
8
0ERM
 10
549178.000000
 20
7823100.000000
 30
0.000000
 62
0
  0
VERTEX
8
0ERM
 10
536640.000000
 20
7823100.000000
 30
0.000000
 62
0
  0
VERTEX
8
0ERM
 10
536637.000000
 20
7823201.000000
 30
0.000000
 62
0
  0
VERTEX
8
0ERM
 10
549182.000000
 20
7823200.000000
 30
0.000000
 62
0
  0
VERTEX
8
0ERM
 10
549191.000000
 20
7823302.000000
 30
0.000000
 62
0
  0
VERTEX
8
0ERM
 10
536639.000000
 20
7823300.000000
 30
0.000000
 62
0
  0
VERTEX
8
0ERM
 10
536638.000000
 20
7823398.000000
 30
0.000000
 62
0
  0
SEQEND
8
0ERM
  0
POLYLINE
8
0ERM
  62
0
  66
1
  0
VERTEX
8
0ERM
 10
536638.000000
 20
7823398.000000
 30
0.000000
 62
0
  0
VERTEX
8
0ERM
 10
549184.000000
 20
7823400.000000
 30
0.000000
 62
0
  0
VERTEX
8
0ERM
 10
549185.000000
 20
7823504.000000
 30
0.000000
 62
0
  0
VERTEX
8
0ERM
 10
536634.000000
 20
7823499.000000
 30
0.000000
 62
0
  0
VERTEX
8
0ERM
 10
536633.000000
 20
7823601.000000
 30
0.000000
 62
0
  0
VERTEX
8
0ERM
 10
549181.000000
 20
7823599.000000
 30
0.000000
 62
0
  0
VERTEX
8
0ERM
 10
549187.000000
 20
7823697.000000
 30
0.000000
 62
0
  0
VERTEX
8
0ERM
 10
536634.000000
 20
7823700.000000
 30
0.000000
 62
0
  0
VERTEX
8
0ERM
 10
536630.000000
 20
7823800.000000
 30
0.000000
 62
0
  0
VERTEX
8
0ERM
 10
549182.000000
 20
7823801.000000
 30
0.000000
 62
0
  0
SEQEND
8
0ERM
  0
POLYLINE
8
0ERM
  62
0
  66
1
  0
VERTEX
8
0ERM
 10
538013.000000
 20
7823902.000000
 30
0.000000
 62
0
  0
VERTEX
8
0ERM
 10
536633.000000
 20
7823899.000000
 30
0.000000
 62
0
  0
VERTEX
8
0ERM
 10
536630.000000
 20
7824000.000000
 30
0.000000
 62
0
  0
VERTEX
8
0ERM
 10
538008.000000
 20
7823998.000000
 30
0.000000
 62
0
  0
VERTEX
8
0ERM
 10
537976.000000
 20
7824102.000000
 30
0.000000
 62
0
  0
VERTEX
8
0ERM
 10
536629.000000
 20
7824101.000000
 30
0.000000
 62
0
  0
VERTEX
8
0ERM
 10
536626.000000
 20
7824201.000000
 30
0.000000
 62
0
  0
VERTEX
8
0ERM
 10
537974.000000
 20
7824198.000000
 30
0.000000
 62
0
  0
VERTEX
8
0ERM
 10
537986.000000
 20
7824298.000000
 30
0.000000
 62
0
  0
VERTEX
8
0ERM
 10
536626.000000
 20
7824300.000000
 30
0.000000
 62
0
  0
VERTEX
8
0ERM
 10
536626.000000
 20
7824402.000000
 30
0.000000
 62
0
  0
VERTEX
8
0ERM
 10
537966.000000
 20
7824398.000000
 30
0.000000
 62
0
  0
VERTEX
8
0ERM
 10
537978.000000
 20
7824500.000000
 30
0.000000
 62
0
  0
VERTEX
8
0ERM
 10
536625.000000
 20
7824499.000000
 30
0.000000
 62
0
  0
VERTEX
8
0ERM
 10
536625.000000
 20
7824601.000000
 30
0.000000
 62
0
  0
VERTEX
8
0ERM
 10
537974.000000
 20
7824601.000000
 30
0.000000
 62
0
  0
VERTEX
8
0ERM
 10
537988.000000
 20
7824700.000000
 30
0.000000
 62
0
  0
VERTEX
8
0ERM
 10
536623.000000
 20
7824700.000000
 30
0.000000
 62
0
  0
VERTEX
8
0ERM
 10
536621.000000
 20
7824800.000000
 30
0.000000
 62
0
  0
SEQEND
8
0ERM
  0
POLYLINE
8
0ERM
  62
0
  66
1
  0
VERTEX
8
0ERM
 10
536621.000000
 20
7824800.000000
 30
0.000000
 62
0
  0
VERTEX
8
0ERM
 10
537977.000000
 20
7824801.000000
 30
0.000000
 62
0
  0
VERTEX
8
0ERM
 10
537985.000000
 20
7824902.000000
 30
0.000000
 62
0
  0
VERTEX
8
0ERM
 10
536622.000000
 20
7824897.000000
 30
0.000000
 62
0
  0
VERTEX
8
0ERM
 10
536619.000000
 20
7824999.000000
 30
0.000000
 62
0
  0
VERTEX
8
0ERM
 10
537982.000000
 20
7824998.000000
 30
0.000000
 62
0
  0
VERTEX
8
0ERM
 10
537995.000000
 20
7825101.000000
 30
0.000000
 62
0
  0
VERTEX
8
0ERM
 10
536621.000000
 20
7825097.000000
 30
0.000000
 62
0
  0
VERTEX
8
0ERM
 10
536619.000000
 20
7825200.000000
 30
0.000000
 62
0
  0
VERTEX
8
0ERM
 10
537978.000000
 20
7825198.000000
 30
0.000000
 62
0
  0
VERTEX
8
0ERM
 10
537974.000000
 20
7825303.000000
 30
0.000000
 62
0
  0
VERTEX
8
0ERM
 10
536614.000000
 20
7825299.000000
 30
0.000000
 62
0
  0
VERTEX
8
0ERM
 10
536617.000000
 20
7825399.000000
 30
0.000000
 62
0
  0
VERTEX
8
0ERM
 10
537985.000000
 20
7825397.000000
 30
0.000000
 62
0
  0
VERTEX
8
0ERM
 10
537996.000000
 20
7825500.000000
 30
0.000000
 62
0
  0
VERTEX
8
0ERM
 10
536613.000000
 20
7825500.000000
 30
0.000000
 62
0
  0
VERTEX
8
0ERM
 10
536613.000000
 20
7825600.000000
 30
0.000000
 62
0
  0
VERTEX
8
0ERM
 10
537983.000000
 20
7825600.000000
 30
0.000000
 62
0
  0
VERTEX
8
0ERM
 10
537979.000000
 20
7825703.000000
 30
0.000000
 62
0
  0
SEQEND
8
0ERM
  0
POLYLINE
8
0ERM
  62
0
  66
1
  0
VERTEX
8
0ERM
 10
537979.000000
 20
7825703.000000
 30
0.000000
 62
0
  0
VERTEX
8
0ERM
 10
536611.000000
 20
7825701.000000
 30
0.000000
 62
0
  0
VERTEX
8
0ERM
 10
536612.000000
 20
7825799.000000
 30
0.000000
 62
0
  0
VERTEX
8
0ERM
 10
537982.000000
 20
7825800.000000
 30
0.000000
 62
0
  0
VERTEX
8
0ERM
 10
537982.000000
 20
7825901.000000
 30
0.000000
 62
0
  0
VERTEX
8
0ERM
 10
536611.000000
 20
7825901.000000
 30
0.000000
 62
0
  0
VERTEX
8
0ERM
 10
536606.000000
 20
7825998.000000
 30
0.000000
 62
0
  0
VERTEX
8
0ERM
 10
537992.000000
 20
7825999.000000
 30
0.000000
 62
0
  0
VERTEX
8
0ERM
 10
537971.000000
 20
7826102.000000
 30
0.000000
 62
0
  0
VERTEX
8
0ERM
 10
536609.000000
 20
7826100.000000
 30
0.000000
 62
0
  0
VERTEX
8
0ERM
 10
536606.000000
 20
7826201.000000
 30
0.000000
 62
0
  0
VERTEX
8
0ERM
 10
537984.000000
 20
7826200.000000
 30
0.000000
 62
0
  0
VERTEX
8
0ERM
 10
537975.000000
 20
7826301.000000
 30
0.000000
 62
0
  0
VERTEX
8
0ERM
 10
536603.000000
 20
7826301.000000
 30
0.000000
 62
0
  0
VERTEX
8
0ERM
 10
536605.000000
 20
7826400.000000
 30
0.000000
 62
0
  0
VERTEX
8
0ERM
 10
537985.000000
 20
7826400.000000
 30
0.000000
 62
0
  0
VERTEX
8
0ERM
 10
537991.000000
 20
7826502.000000
 30
0.000000
 62
0
  0
VERTEX
8
0ERM
 10
536605.000000
 20
7826500.000000
 30
0.000000
 62
0
  0
VERTEX
8
0ERM
 10
536602.000000
 20
7826598.000000
 30
0.000000
 62
0
  0
SEQEND
8
0ERM
  0
POLYLINE
8
0ERM
  62
0
  66
1
  0
VERTEX
8
0ERM
 10
536602.000000
 20
7826598.000000
 30
0.000000
 62
0
  0
VERTEX
8
0ERM
 10
537975.000000
 20
7826599.000000
 30
0.000000
 62
0
  0
VERTEX
8
0ERM
 10
537981.000000
 20
7826700.000000
 30
0.000000
 62
0
  0
VERTEX
8
0ERM
 10
536600.000000
 20
7826699.000000
 30
0.000000
 62
0
  0
VERTEX
8
0ERM
 10
536600.000000
 20
7826800.000000
 30
0.000000
 62
0
  0
VERTEX
8
0ERM
 10
537971.000000
 20
7826799.000000
 30
0.000000
 62
0
  0
VERTEX
8
0ERM
 10
537988.000000
 20
7826903.000000
 30
0.000000
 62
0
  0
VERTEX
8
0ERM
 10
536599.000000
 20
7826900.000000
 30
0.000000
 62
0
  0
VERTEX
8
0ERM
 10
536600.000000
 20
7827000.000000
 30
0.000000
 62
0
  0
VERTEX
8
0ERM
 10
537993.000000
 20
7827000.000000
 30
0.000000
 62
0
  0
VERTEX
8
0ERM
 10
537994.000000
 20
7827100.000000
 30
0.000000
 62
0
  0
VERTEX
8
0ERM
 10
536594.000000
 20
7827100.000000
 30
0.000000
 62
0
  0
SEQEND
8
0ERM
  0
POLYLINE
8
0ERM
  62
0
  66
1
  0
VERTEX
8
0ERM
 10
529316.000000
 20
7827201.000000
 30
0.000000
 62
0
  0
VERTEX
8
0ERM
 10
532157.000000
 20
7827199.000000
 30
0.000000
 62
0
  0
SEQEND
8
0ERM
  0
POLYLINE
8
0ERM
  62
0
  66
1
  0
VERTEX
8
0ERM
 10
536597.000000
 20
7827198.000000
 30
0.000000
 62
0
  0
VERTEX
8
0ERM
 10
537984.000000
 20
7827201.000000
 30
0.000000
 62
0
  0
VERTEX
8
0ERM
 10
537998.000000
 20
7827299.000000
 30
0.000000
 62
0
  0
VERTEX
8
0ERM
 10
529314.000000
 20
7827298.000000
 30
0.000000
 62
0
  0
VERTEX
8
0ERM
 10
529319.000000
 20
7827399.000000
 30
0.000000
 62
0
  0
VERTEX
8
0ERM
 10
537982.000000
 20
7827402.000000
 30
0.000000
 62
0
  0
VERTEX
8
0ERM
 10
537986.000000
 20
7827501.000000
 30
0.000000
 62
0
  0
VERTEX
8
0ERM
 10
529320.000000
 20
7827495.000000
 30
0.000000
 62
0
  0
VERTEX
8
0ERM
 10
529323.000000
 20
7827597.000000
 30
0.000000
 62
0
  0
VERTEX
8
0ERM
 10
537982.000000
 20
7827599.000000
 30
0.000000
 62
0
  0
VERTEX
8
0ERM
 10
537981.000000
 20
7827699.000000
 30
0.000000
 62
0
  0
VERTEX
8
0ERM
 10
529318.000000
 20
7827702.000000
 30
0.000000
 62
0
  0
VERTEX
8
0ERM
 10
529321.000000
 20
7827800.000000
 30
0.000000
 62
0
  0
VERTEX
8
0ERM
 10
537974.000000
 20
7827801.000000
 30
0.000000
 62
0
  0
VERTEX
8
0ERM
 10
537999.000000
 20
7827899.000000
 30
0.000000
 62
0
  0
VERTEX
8
0ERM
 10
529319.000000
 20
7827901.000000
 30
0.000000
 62
0
  0
VERTEX
8
0ERM
 10
529302.000000
 20
7827999.000000
 30
0.000000
 62
0
  0
VERTEX
8
0ERM
 10
537984.000000
 20
7828001.000000
 30
0.000000
 62
0
  0
VERTEX
8
0ERM
 10
537980.000000
 20
7828111.000000
 30
0.000000
 62
0
  0
SEQEND
8
0ERM
  0
POLYLINE
8
0ERM
  62
0
  66
1
  0
VERTEX
8
0ERM
 10
537980.000000
 20
7828111.000000
 30
0.000000
 62
0
  0
VERTEX
8
0ERM
 10
529332.000000
 20
7828101.000000
 30
0.000000
 62
0
  0
VERTEX
8
0ERM
 10
529307.000000
 20
7828201.000000
 30
0.000000
 62
0
  0
VERTEX
8
0ERM
 10
537992.000000
 20
7828202.000000
 30
0.000000
 62
0
  0
VERTEX
8
0ERM
 10
537987.000000
 20
7828300.000000
 30
0.000000
 62
0
  0
VERTEX
8
0ERM
 10
529321.000000
 20
7828300.000000
 30
0.000000
 62
0
  0
VERTEX
8
0ERM
 10
529324.000000
 20
7828403.000000
 30
0.000000
 62
0
  0
VERTEX
8
0ERM
 10
537984.000000
 20
7828399.000000
 30
0.000000
 62
0
  0
VERTEX
8
0ERM
 10
537994.000000
 20
7828501.000000
 30
0.000000
 62
0
  0
VERTEX
8
0ERM
 10
529328.000000
 20
7828501.000000
 30
0.000000
 62
0
  0
VERTEX
8
0ERM
 10
529304.000000
 20
7828601.000000
 30
0.000000
 62
0
  0
VERTEX
8
0ERM
 10
537979.000000
 20
7828599.000000
 30
0.000000
 62
0
  0
VERTEX
8
0ERM
 10
537999.000000
 20
7828700.000000
 30
0.000000
 62
0
  0
VERTEX
8
0ERM
 10
529326.000000
 20
7828700.000000
 30
0.000000
 62
0
  0
VERTEX
8
0ERM
 10
529300.000000
 20
7828802.000000
 30
0.000000
 62
0
  0
VERTEX
8
0ERM
 10
537985.000000
 20
7828800.000000
 30
0.000000
 62
0
  0
VERTEX
8
0ERM
 10
537973.000000
 20
7828904.000000
 30
0.000000
 62
0
  0
VERTEX
8
0ERM
 10
529316.000000
 20
7828901.000000
 30
0.000000
 62
0
  0
VERTEX
8
0ERM
 10
529308.000000
 20
7829000.000000
 30
0.000000
 62
0
  0
SEQEND
8
0ERM
  0
POLYLINE
8
0ERM
  62
0
  66
1
  0
VERTEX
8
0ERM
 10
529308.000000
 20
7829000.000000
 30
0.000000
 62
0
  0
VERTEX
8
0ERM
 10
537974.000000
 20
7829000.000000
 30
0.000000
 62
0
  0
VERTEX
8
0ERM
 10
537981.000000
 20
7829103.000000
 30
0.000000
 62
0
  0
VERTEX
8
0ERM
 10
529317.000000
 20
7829100.000000
 30
0.000000
 62
0
  0
VERTEX
8
0ERM
 10
529323.000000
 20
7829198.000000
 30
0.000000
 62
0
  0
VERTEX
8
0ERM
 10
537980.000000
 20
7829198.000000
 30
0.000000
 62
0
  0
VERTEX
8
0ERM
 10
537972.000000
 20
7829299.000000
 30
0.000000
 62
0
  0
VERTEX
8
0ERM
 10
529327.000000
 20
7829297.000000
 30
0.000000
 62
0
  0
VERTEX
8
0ERM
 10
529303.000000
 20
7829402.000000
 30
0.000000
 62
0
  0
VERTEX
8
0ERM
 10
537981.000000
 20
7829400.000000
 30
0.000000
 62
0
  0
VERTEX
8
0ERM
 10
537988.000000
 20
7829499.000000
 30
0.000000
 62
0
  0
VERTEX
8
0ERM
 10
529329.000000
 20
7829497.000000
 30
0.000000
 62
0
  0
VERTEX
8
0ERM
 10
529302.000000
 20
7829603.000000
 30
0.000000
 62
0
  0
VERTEX
8
0ERM
 10
537981.000000
 20
7829601.000000
 30
0.000000
 62
0
  0
VERTEX
8
0ERM
 10
537978.000000
 20
7829698.000000
 30
0.000000
 62
0
  0
VERTEX
8
0ERM
 10
529333.000000
 20
7829700.000000
 30
0.000000
 62
0
  0
VERTEX
8
0ERM
 10
529306.000000
 20
7829800.000000
 30
0.000000
 62
0
  0
VERTEX
8
0ERM
 10
537972.000000
 20
7829798.000000
 30
0.000000
 62
0
  0
VERTEX
8
0ERM
 10
537988.000000
 20
7829903.000000
 30
0.000000
 62
0
  0
SEQEND
8
0ERM
  0
POLYLINE
8
0ERM
  62
0
  66
1
  0
VERTEX
8
0ERM
 10
537988.000000
 20
7829903.000000
 30
0.000000
 62
0
  0
VERTEX
8
0ERM
 10
529315.000000
 20
7829899.000000
 30
0.000000
 62
0
  0
VERTEX
8
0ERM
 10
529308.000000
 20
7830000.000000
 30
0.000000
 62
0
  0
VERTEX
8
0ERM
 10
537980.000000
 20
7830001.000000
 30
0.000000
 62
0
  0
VERTEX
8
0ERM
 10
537989.000000
 20
7830098.000000
 30
0.000000
 62
0
  0
VERTEX
8
0ERM
 10
529329.000000
 20
7830098.000000
 30
0.000000
 62
0
  0
VERTEX
8
0ERM
 10
529311.000000
 20
7830200.000000
 30
0.000000
 62
0
  0
VERTEX
8
0ERM
 10
537989.000000
 20
7830198.000000
 30
0.000000
 62
0
  0
VERTEX
8
0ERM
 10
537990.000000
 20
7830301.000000
 30
0.000000
 62
0
  0
VERTEX
8
0ERM
 10
529316.000000
 20
7830299.000000
 30
0.000000
 62
0
  0
VERTEX
8
0ERM
 10
529314.000000
 20
7830401.000000
 30
0.000000
 62
0
  0
VERTEX
8
0ERM
 10
537976.000000
 20
7830401.000000
 30
0.000000
 62
0
  0
VERTEX
8
0ERM
 10
537995.000000
 20
7830501.000000
 30
0.000000
 62
0
  0
VERTEX
8
0ERM
 10
529327.000000
 20
7830497.000000
 30
0.000000
 62
0
  0
VERTEX
8
0ERM
 10
529324.000000
 20
7830600.000000
 30
0.000000
 62
0
  0
VERTEX
8
0ERM
 10
537970.000000
 20
7830601.000000
 30
0.000000
 62
0
  0
VERTEX
8
0ERM
 10
537975.000000
 20
7830701.000000
 30
0.000000
 62
0
  0
VERTEX
8
0ERM
 10
529312.000000
 20
7830700.000000
 30
0.000000
 62
0
  0
VERTEX
8
0ERM
 10
529303.000000
 20
7830798.000000
 30
0.000000
 62
0
  0
SEQEND
8
0ERM
  0
POLYLINE
8
0ERM
  62
0
  66
1
  0
VERTEX
8
0ERM
 10
529303.000000
 20
7830798.000000
 30
0.000000
 62
0
  0
VERTEX
8
0ERM
 10
537976.000000
 20
7830801.000000
 30
0.000000
 62
0
  0
VERTEX
8
0ERM
 10
537982.000000
 20
7830897.000000
 30
0.000000
 62
0
  0
VERTEX
8
0ERM
 10
529306.000000
 20
7830900.000000
 30
0.000000
 62
0
  0
VERTEX
8
0ERM
 10
529301.000000
 20
7831000.000000
 30
0.000000
 62
0
  0
VERTEX
8
0ERM
 10
537975.000000
 20
7830998.000000
 30
0.000000
 62
0
  0
VERTEX
8
0ERM
 10
537974.000000
 20
7831099.000000
 30
0.000000
 62
0
  0
VERTEX
8
0ERM
 10
529321.000000
 20
7831100.000000
 30
0.000000
 62
0
  0
VERTEX
8
0ERM
 10
529311.000000
 20
7831198.000000
 30
0.000000
 62
0
  0
VERTEX
8
0ERM
 10
537982.000000
 20
7831200.000000
 30
0.000000
 62
0
  0
VERTEX
8
0ERM
 10
537971.000000
 20
7831300.000000
 30
0.000000
 62
0
  0
VERTEX
8
0ERM
 10
529317.000000
 20
7831298.000000
 30
0.000000
 62
0
  0
VERTEX
8
0ERM
 10
529323.000000
 20
7831398.000000
 30
0.000000
 62
0
  0
VERTEX
8
0ERM
 10
537977.000000
 20
7831397.000000
 30
0.000000
 62
0
  0
VERTEX
8
0ERM
 10
537986.000000
 20
7831499.000000
 30
0.000000
 62
0
  0
VERTEX
8
0ERM
 10
529319.000000
 20
7831499.000000
 30
0.000000
 62
0
  0
VERTEX
8
0ERM
 10
529312.000000
 20
7831600.000000
 30
0.000000
 62
0
  0
VERTEX
8
0ERM
 10
537978.000000
 20
7831600.000000
 30
0.000000
 62
0
  0
VERTEX
8
0ERM
 10
537974.000000
 20
7831703.000000
 30
0.000000
 62
0
  0
SEQEND
8
0ERM
  0
POLYLINE
8
0ERM
  62
0
  66
1
  0
VERTEX
8
0ERM
 10
537974.000000
 20
7831703.000000
 30
0.000000
 62
0
  0
VERTEX
8
0ERM
 10
529319.000000
 20
7831699.000000
 30
0.000000
 62
0
  0
VERTEX
8
0ERM
 10
529316.000000
 20
7831801.000000
 30
0.000000
 62
0
  0
VERTEX
8
0ERM
 10
537975.000000
 20
7831800.000000
 30
0.000000
 62
0
  0
SEQEND
8
0ERM
  0
POLYLINE
8
0ERM
  62
0
  66
1
  0
VERTEX
8
0ERM
 10
548999.000000
 20
7812808.000000
 30
0.000000
 62
0
  0
VERTEX
8
0ERM
 10
549001.000000
 20
7823994.000000
 30
0.000000
 62
0
  0
SEQEND
8
0ERM
  0
POLYLINE
8
0ERM
  62
0
  66
1
  0
VERTEX
8
0ERM
 10
547996.000000
 20
7823977.000000
 30
0.000000
 62
0
  0
VERTEX
8
0ERM
 10
547999.000000
 20
7812822.000000
 30
0.000000
 62
0
  0
SEQEND
8
0ERM
  0
POLYLINE
8
0ERM
  62
0
  66
1
  0
VERTEX
8
0ERM
 10
547008.000000
 20
7812825.000000
 30
0.000000
 62
0
  0
VERTEX
8
0ERM
 10
547000.000000
 20
7823988.000000
 30
0.000000
 62
0
  0
SEQEND
8
0ERM
  0
POLYLINE
8
0ERM
  62
0
  66
1
  0
VERTEX
8
0ERM
 10
546010.000000
 20
7823988.000000
 30
0.000000
 62
0
  0
VERTEX
8
0ERM
 10
545998.000000
 20
7812831.000000
 30
0.000000
 62
0
  0
SEQEND
8
0ERM
  0
POLYLINE
8
0ERM
  62
0
  66
1
  0
VERTEX
8
0ERM
 10
545005.000000
 20
7812814.000000
 30
0.000000
 62
0
  0
VERTEX
8
0ERM
 10
544999.000000
 20
7823991.000000
 30
0.000000
 62
0
  0
SEQEND
8
0ERM
  0
POLYLINE
8
0ERM
  62
0
  66
1
  0
VERTEX
8
0ERM
 10
544005.000000
 20
7823994.000000
 30
0.000000
 62
0
  0
VERTEX
8
0ERM
 10
543998.000000
 20
7812820.000000
 30
0.000000
 62
0
  0
SEQEND
8
0ERM
  0
POLYLINE
8
0ERM
  62
0
  66
1
  0
VERTEX
8
0ERM
 10
543004.000000
 20
7812813.000000
 30
0.000000
 62
0
  0
VERTEX
8
0ERM
 10
543001.000000
 20
7823977.000000
 30
0.000000
 62
0
  0
SEQEND
8
0ERM
  0
POLYLINE
8
0ERM
  62
0
  66
1
  0
VERTEX
8
0ERM
 10
542002.000000
 20
7823990.000000
 30
0.000000
 62
0
  0
VERTEX
8
0ERM
 10
541998.000000
 20
7812832.000000
 30
0.000000
 62
0
  0
SEQEND
8
0ERM
  0
POLYLINE
8
0ERM
  62
0
  66
1
  0
VERTEX
8
0ERM
 10
541002.000000
 20
7812819.000000
 30
0.000000
 62
0
  0
VERTEX
8
0ERM
 10
541000.000000
 20
7823970.000000
 30
0.000000
 62
0
  0
SEQEND
8
0ERM
  0
POLYLINE
8
0ERM
  62
0
  66
1
  0
VERTEX
8
0ERM
 10
539996.000000
 20
7823997.000000
 30
0.000000
 62
0
  0
VERTEX
8
0ERM
 10
539999.000000
 20
7804830.000000
 30
0.000000
 62
0
  0
SEQEND
8
0ERM
  0
POLYLINE
8
0ERM
  62
0
  66
1
  0
VERTEX
8
0ERM
 10
539004.000000
 20
7804809.000000
 30
0.000000
 62
0
  0
VERTEX
8
0ERM
 10
538999.000000
 20
7823980.000000
 30
0.000000
 62
0
  0
SEQEND
8
0ERM
  0
POLYLINE
8
0ERM
  62
0
  66
1
  0
VERTEX
8
0ERM
 10
538016.000000
 20
7823993.000000
 30
0.000000
 62
0
  0
VERTEX
8
0ERM
 10
537998.000000
 20
7804819.000000
 30
0.000000
 62
0
  0
SEQEND
8
0ERM
  0
POLYLINE
8
0ERM
  62
0
  66
1
  0
VERTEX
8
0ERM
 10
536999.000000
 20
7804808.000000
 30
0.000000
 62
0
  0
VERTEX
8
0ERM
 10
536997.000000
 20
7831993.000000
 30
0.000000
 62
0
  0
SEQEND
8
0ERM
  0
POLYLINE
8
0ERM
  62
0
  66
1
  0
VERTEX
8
0ERM
 10
535996.000000
 20
7831982.000000
 30
0.000000
 62
0
  0
VERTEX
8
0ERM
 10
535998.000000
 20
7806815.000000
 30
0.000000
 62
0
  0
SEQEND
8
0ERM
  0
POLYLINE
8
0ERM
  62
0
  66
1
  0
VERTEX
8
0ERM
 10
534996.000000
 20
7806823.000000
 30
0.000000
 62
0
  0
VERTEX
8
0ERM
 10
534998.000000
 20
7831977.000000
 30
0.000000
 62
0
  0
SEQEND
8
0ERM
  0
POLYLINE
8
0ERM
  62
0
  66
1
  0
VERTEX
8
0ERM
 10
534011.000000
 20
7831984.000000
 30
0.000000
 62
0
  0
VERTEX
8
0ERM
 10
534001.000000
 20
7806821.000000
 30
0.000000
 62
0
  0
SEQEND
8
0ERM
  0
POLYLINE
8
0ERM
  62
0
  66
1
  0
VERTEX
8
0ERM
 10
533005.000000
 20
7806804.000000
 30
0.000000
 62
0
  0
VERTEX
8
0ERM
 10
533000.000000
 20
7831979.000000
 30
0.000000
 62
0
  0
SEQEND
8
0ERM
  0
POLYLINE
8
0ERM
  62
0
  66
1
  0
VERTEX
8
0ERM
 10
531996.000000
 20
7831999.000000
 30
0.000000
 62
0
  0
VERTEX
8
0ERM
 10
532001.000000
 20
7806808.000000
 30
0.000000
 62
0
  0
SEQEND
8
0ERM
  0
POLYLINE
8
0ERM
  62
0
  66
1
  0
VERTEX
8
0ERM
 10
530990.000000
 20
7806800.000000
 30
0.000000
 62
0
  0
VERTEX
8
0ERM
 10
530997.000000
 20
7831970.000000
 30
0.000000
 62
0
  0
SEQEND
8
0ERM
  0
POLYLINE
8
0ERM
  62
0
  66
1
  0
VERTEX
8
0ERM
 10
530022.000000
 20
7831980.000000
 30
0.000000
 62
0
  0
VERTEX
8
0ERM
 10
530000.000000
 20
7806826.000000
 30
0.000000
 62
0
  0
SEQEND
8
0ERM
  0
POLYLINE
8
0ERM
  62
0
  66
1
  0
VERTEX
8
0ERM
 10
529000.000000
 20
7806813.000000
 30
0.000000
 62
0
  0
VERTEX
8
0ERM
 10
528999.000000
 20
7822494.000000
 30
0.000000
 62
0
  0
SEQEND
8
0ERM
  0
POLYLINE
8
0ERM
  62
0
  66
1
  0
VERTEX
8
0ERM
 10
528012.000000
 20
7822489.000000
 30
0.000000
 62
0
  0
VERTEX
8
0ERM
 10
528000.000000
 20
7806822.000000
 30
0.000000
 62
0
  0
SEQEND
8
0ERM
  0
POLYLINE
8
0ERM
  62
0
  66
1
  0
VERTEX
8
0ERM
 10
526998.000000
 20
7813325.000000
 30
0.000000
 62
0
  0
VERTEX
8
0ERM
 10
527002.000000
 20
7822478.000000
 30
0.000000
 62
0
  0
SEQEND
8
0ERM
  0
POLYLINE
8
0ERM
  62
0
  66
1
  0
VERTEX
8
0ERM
 10
526001.000000
 20
7822497.000000
 30
0.000000
 62
0
  0
VERTEX
8
0ERM
 10
526001.000000
 20
7813317.000000
 30
0.000000
 62
0
  0
SEQEND
8
0ERM
  0
POLYLINE
8
0ERM
  62
0
  66
1
  0
VERTEX
8
0ERM
 10
525013.000000
 20
7813305.000000
 30
0.000000
 62
0
  0
VERTEX
8
0ERM
 10
525000.000000
 20
7822475.000000
 30
0.000000
 62
0
  0
SEQEND
8
0ERM
  0
POLYLINE
8
0ERM
  62
0
  66
1
  0
VERTEX
8
0ERM
 10
524000.000000
 20
7822487.000000
 30
0.000000
 62
0
  0
VERTEX
8
0ERM
 10
524001.000000
 20
7813309.000000
 30
0.000000
 62
0
  0
SEQEND
8
0ERM
  0
POLYLINE
8
0ERM
  62
0
  66
1
  0
VERTEX
8
0ERM
 10
523006.000000
 20
7813323.000000
 30
0.000000
 62
0
  0
VERTEX
8
0ERM
 10
522998.000000
 20
7822474.000000
 30
0.000000
 62
0
  0
SEQEND
8
0ERM
  0
TEXT
8
0ERM
 62
19
 10
522997.000000
 20
7801270.000000
 30
0.000000
 40
4233.330078
 50
0
  1
CR20010287_PargeeEL8734_Airmag_Northeast-lines
 62
0
  0
TEXT
8
0ERM
 62
19
 10
522997.000000
 20
7797036.669922
 30
0.000000
 40
4233.330078
 50
0
  1
1838.4 km  090
 62
0
  0
ENDSEC
  0
EOF
