  0
SECTION
  2
HEADER
  9
$EXTMIN
 10
524500.000000
 20
7803500.000000
  9
$EXTMAX
 10
545000.000000
 20
7828300.000000
  0
ENDSEC
  0
SECTION
  2
ENTITIES
  0
POLYLINE
8
0ERM
  62
0
  66
1
  0
VERTEX
8
0ERM
 10
545000.000000
 20
7818300.000000
 30
0.000000
 62
0
  0
VERTEX
8
0ERM
 10
543800.000000
 20
7818300.000000
 30
0.000000
 62
0
  0
SEQEND
8
0ERM
  0
POLYLINE
8
0ERM
  62
0
  66
1
  0
VERTEX
8
0ERM
 10
545000.000000
 20
7821500.000000
 30
0.000000
 62
0
  0
VERTEX
8
0ERM
 10
543000.000000
 20
7821500.000000
 30
0.000000
 62
0
  0
SEQEND
8
0ERM
  0
POLYLINE
8
0ERM
  62
0
  66
1
  0
VERTEX
8
0ERM
 10
525000.000000
 20
7816700.000000
 30
0.000000
 62
0
  0
VERTEX
8
0ERM
 10
527000.000000
 20
7816700.000000
 30
0.000000
 62
0
  0
SEQEND
8
0ERM
  0
POLYLINE
8
0ERM
  62
0
  66
1
  0
VERTEX
8
0ERM
 10
524500.000000
 20
7817500.000000
 30
0.000000
 62
0
  0
VERTEX
8
0ERM
 10
526700.000000
 20
7817500.000000
 30
0.000000
 62
0
  0
SEQEND
8
0ERM
  0
POLYLINE
8
0ERM
  62
0
  66
1
  0
VERTEX
8
0ERM
 10
524500.000000
 20
7818300.000000
 30
0.000000
 62
0
  0
VERTEX
8
0ERM
 10
526500.000000
 20
7818300.000000
 30
0.000000
 62
0
  0
SEQEND
8
0ERM
  0
POLYLINE
8
0ERM
  62
0
  66
1
  0
VERTEX
8
0ERM
 10
524500.000000
 20
7819500.000000
 30
0.000000
 62
0
  0
VERTEX
8
0ERM
 10
526000.000000
 20
7819500.000000
 30
0.000000
 62
0
  0
SEQEND
8
0ERM
  0
POLYLINE
8
0ERM
  62
0
  66
1
  0
VERTEX
8
0ERM
 10
532600.000000
 20
7827500.000000
 30
0.000000
 62
0
  0
VERTEX
8
0ERM
 10
536499.250000
 20
7827500.000000
 30
0.000000
 62
0
  0
SEQEND
8
0ERM
  0
POLYLINE
8
0ERM
  62
0
  66
1
  0
VERTEX
8
0ERM
 10
534000.750000
 20
7827900.000000
 30
0.000000
 62
0
  0
VERTEX
8
0ERM
 10
534800.000000
 20
7827900.000000
 30
0.000000
 62
0
  0
SEQEND
8
0ERM
  0
POLYLINE
8
0ERM
  62
0
  66
1
  0
VERTEX
8
0ERM
 10
535200.000000
 20
7827900.000000
 30
0.000000
 62
0
  0
VERTEX
8
0ERM
 10
536500.000000
 20
7827900.000000
 30
0.000000
 62
0
  0
SEQEND
8
0ERM
  0
POLYLINE
8
0ERM
  62
0
  66
1
  0
VERTEX
8
0ERM
 10
534000.000000
 20
7828300.000000
 30
0.000000
 62
0
  0
VERTEX
8
0ERM
 10
536500.000000
 20
7828300.000000
 30
0.000000
 62
0
  0
SEQEND
8
0ERM
  0
POLYLINE
8
0ERM
  62
0
  66
1
  0
VERTEX
8
0ERM
 10
545000.000000
 20
7823900.000000
 30
0.000000
 62
0
  0
VERTEX
8
0ERM
 10
545000.000000
 20
7817000.000000
 30
0.000000
 62
0
  0
SEQEND
8
0ERM
  0
POLYLINE
8
0ERM
  62
0
  66
1
  0
VERTEX
8
0ERM
 10
525500.000000
 20
7822000.000000
 30
0.000000
 62
0
  0
VERTEX
8
0ERM
 10
525500.000000
 20
7815500.000000
 30
0.000000
 62
0
  0
SEQEND
8
0ERM
  0
TEXT
8
0ERM
 62
19
 10
524500.000000
 20
7811970.000000
 30
0.000000
 40
4233.330078
 50
0
  1
CR20000367_temp-lines
 62
0
  0
TEXT
8
0ERM
 62
19
 10
524500.000000
 20
7807736.669922
 30
0.000000
 40
4233.330078
 50
0
  1
32.8 km  090
 62
0
  0
ENDSEC
  0
EOF
